20140908

JULIETTE VALDURIEZ LOST PARADISE TAB

Lost Paradise played by Juliette Valduriez.
Incredible lead guitar playing - will definitely kill you at 0:35.
See the TAB under the video.



JULIETTE VALDURIEZ LOST PARADISE TAB

PDF >>

Clean part

e---------------------------------------------------0-----0---0-0-------
B-------------------------5---5-0---------3---------2-----2---2-2-------
G---------0---------------5---5-0-----0-0---0-2-----2-2---2---2-2-------
D-------4-----------------5---5-0---4---------2-------2---2---2-2-------
A-----7-------3-------3---3---3---5-----------0-------0---0---0-0-------
E-0---------------------------------------------------------------------


e---------------------------------------------------0-----0---0-0-------
B-------------------------5---5-0---------3---------2-----2---2-2-------
G---------0---------------5---5-0-----0-----0-2-----2-2---2---2-2-------
D-------4-----------------5---5-0---4---4-----2-------2---2---2-2-------
A-----7-------3-------3---3---3---5-----------0-------0---0---0-0-------
E-0---------------------------------------------------------------------


e---------------------------------------------------0-----0---0-0-------
B-------------------------5---5-0---------3---------2-----2---2-2-------
G---------0---------------5---5-0-----0-----0-2-----2-2---2---2-2-------
D-------4-----------------5---5-0---4---4-----2-------2---2---2-2-------
A-----7-------3-------3---3---3---5-----------0-------0---0---0-0-------
E-0---------------------------------------------------------------------



e-0---------------0---------------0-------------------------------------
B-0---------------1---------------2-------------------------------------
G-0---------------0---------------2-------------------------------------
D-2---------------2---------------2-------------------------------------
A-2---------------3---------------0-------------------------------------
E-0---------------------------------------------------------------------


e-0---------------0---------------0-------------------------------------
B-1---------------3---------------0-------------------------------------
G-0---------------0---------------0-------------------------------------
D-2---------------4---------------2-------------------------------------
A-3---------------5---------------2-------------------------------------
E---------------------------------0-------------------------------------


Lead part

e-14---------------14----------------14-------x-x-----------------------
B-17(19)~~~--------17(19)~~~---------17(19)---x-x-----------------------
G-----------------------------------------------------------------------
D-----------------------------------------------------------------------
A-----------------------------------------------------------------------
E-----------------------------------------------------------------------


e-12-------------------12----------12-----------------------------------
B-15(17)~~----------------15(17)------15(17)~---------------------------
G-----------------------------------------------------------------------
D-----------------------------------------------------------------------
A-----------------------------------------------------------------------
E------------------------------------------------\\\\-------------------


e--------------------------7h8h10p8p7--------10p8p7--------10p8p7-------
B-------------------7h8h10------------10p8p7--------10p8p7--------10p8p7
G-------------5h7h9-----------------------------------------------------
D-------5h7h9-----------------------------------------------------------
A-5h7h9-----------------------------------------------------------------
E-----------------------------------------------------------------------


e-----------------------------------------------------------------------
B-x-7-------------------------------------------------------------------
G-x-9(11)-------(9)p7-9~---x-9(11)-----(9)p7-9~-------------------------
D-----------------------------------------------------------------------
A-----------------------------------------------------------------------
E-----------------------------------------------------------------------


e----------------------------------A.H.---------------------------------
B-----------------------------------------------------------------------
G-9(11)------9(11)------9(11)------9(11)---------7/9~~~-----------------
D-----------------------------------------------------------------------
A-----------------------------------------------------------------------
E-----------------------------------------------------------------------


e-----------------------------------------------------------------------
B-8/10---8---7-------(8)(7)--------------8/10---8---7-------(8)(7)------
G---------------------------9~-------------------------------------9~---
D-----------------------------------------------------------------------
A-----------------------------------------------------------------------
E-----------------------------------------------------------------------


e-----------x-x------------------------------------------12------12-----
B-----------x-x-15(17)---(15)-15(17)~~~-----------------------15--------
G----9\\\---------------------------------------------------------------
D-----------------------------------------------------------------------
A-----------------------------------------------------------------------
E-----------------------------------------------------------------------


e-17p15p12-----------12-17p15p12-----------12-17p15p12------------------
B---------17-15-12-15-----------17-15-12-15-----------17-15-12--12------
G-------------------------------------------------------------15--------
D-----------------------------------------------------------------------
A-----------------------------------------------------------------------
E-----------------------------------------------------------------------


e-------------------------------------12--------------------------------
B-17p15p12-------------------------12----15-12----12--------------------
G---------16-14-12--12-15-14-12----------------15-----------------------
D-----------------14------------14--------------------------------------
A-----------------------------------------------------------------------
E-----------------------------------------------------------------------


e-17p15p12-----------12-17p15p12-----------18-17-15--------18-17-15-----
B---------17-15-12-15-----------17-15-12-15--------17-15-17--------17---
G-----------------------------------------------------------------------
D-----------------------------------------------------------------------
A-----------------------------------------------------------------------
E-----------------------------------------------------------------------


e-------15-17(19)~----17(19)~---(17)-17(19)~---(17)-17(19)---17(19)(17)~
B-15-17-----------------------------------------------------------------
G-----------------------------------------------------------------------
D-----------------------------------------------------------------------
A-----------------------------------------------------------------------
E-----------------------------------------------------------------------


e-------------------------12--------------------------------------------
B------15(17)~~~------------15p12----------12-----------------15--------
G--------------------------------14-14(16)----14-12--14(16)-----14(16)--
D--------------------------------------------------14-------------------
A-----------------------------------------------------------------------
E-----------------------------------------------------------------------


e-----------------------------------------------------------------------
B-----------------------------------------------------------------------
G--(16)-(16)(14)-12-----------------------------------------------------
D-------------------14~------------12/14~---12~-------------------------
A-----------------------------------------------------------------------
E-----------------------------------------------------------------------


e-----------------------------------------------------------------------
B-----------------------------------------------------------------------
G-----------------------------------------------------------------------
D-----------------------------------------------------------------------
A-12(14)(12)-----(14)-10------------------------------------------------
E------------------------12-10/12~-----------\\\------------------------


e-----------------------------------------------------------------------
B-----------------------------------------------------------------------
G-7/9-9-9-9/11111111\9-9-----x-x-11(12)(11)-----------------------------
D-------------------------------------------------14~-------------------
A-5/7-7-7-7/9-9-9-9-\7-7------------------------------------------------
E-----------------------------------------------------------------------


e-----------------------------------------------------------------------
B-----11(12)(11)--------------------------------------------------------
G-x-x-11(12)(11)--------------------------------------------------------
D--------------------14---12/14~----------------------------------------
A-----------------------------------------------------------------------
E-----------------------------------------------------------------------


e-----------------------------------------------------------------------
B-----------------------------------------------------------------------
G-7/9-9-9-9/1111/12\11\9-----9-7-7/9-9-9-9-9-9/1111\9-9-----------------
D-----------------------------------------------------------------------
A-5/7-7-7-7/9-9-/10\9-\7-----7-5-5/7-7-7-7-7-7/9-9-\7-7-----------------
E-----------------------------------------------------------------------


e-----------------------------------------------------------------------
B-x-12'-------------------------------------------------x-x-12'---------
G-x-12'---------------------------------x-x-7/9-9---7---x-x-12'--12-----
D---------14-12-14-14-14-12/14~---\12~--x-x-------------x-x---------14~-
A---------------------------------------x-x-5/7-7---5-------------------
E-----------------------------------------------------------------------


e-----------------------------------------------------------------------
B---------------------------------------x-12'---------------12-12'---A.H
G-x-x-9/11111111/12-12-12-12\11\9---9---x-12'---------------12-12'------
D-x-x-------------------------------------------14-12-14-12----------14-
A-x-x-7/9-9-9-9-/10-10-10-10\-9\7---7-----------------------------------
E-----------------------------------------------------------------------


e-----------------------------------------------------------------------
B----------x-12'---------------14-12'-----------------------------------
G----14----x-12'---------------14-12'-----------------------------------
D-------14---------14-12-14-12------------14-12-14~---------------------
A-----------------------------------------------------------------------
E-----------------------------------------------------------------------