20140921

MICHAEL LUCARELLI HIE FOLGET EIN WELSHER TANZ TAB (HANS NEUSIEDLER)

Michael Lucarelli plays his Loriente Cedar guitar now in Moab (Utah).
The song is called Hie Folget Ein Welsher Tanz by Hans Neusiedler.
Capo on the 1st fret, standard tuning.
See the TAB undet the video.


MICHAEL LUCARELLI HIE FOLGET EIN WELSHER TANZ TAB

PDF >>

Part 1

e-1-0-1-3-1-0-3-1-0-------0-3-1-0-1-0---------------------0---0---------
B-------------------------------------3-1---3-2-0-2-0-2-3-2---2---------
G-2-------2-------0---0-2-0-------2-------2-------2---------------------
D-0-------0---------4-------------0-------------------------------------
A-----------------3-------3---------------0-------0-------0-------------
E-----------------------------------------------------------------------


e-1-0-1-3-1-0-3-1-0-------0-3-1-0-1---0---------------------------------
B---------------------------------------3-2---3-2-3---3-2-3---3---------
G-2-------2-------0---0-2-0-------2-------2-------2-2-----2---2---------
D-0-------0---------4-------------0---------------0-------0-------------
A-----------------3-------3---------------0-----------------------------
E-----------------------------------------------------------------------


e-1-0-1-3-1-0-3-1-0-------0-3-1-0-1-0---------------------0---0---------
B-------------------------------------3-1---3-2-0-2-0-2-3-2---2---------
G-2-------2-------0---0-2-0-------2-------2-------2---------------------
D-0-------0---------4-------------0-------------------------------------
A-----------------3-------3---------------0-------0-------0-------------
E-----------------------------------------------------------------------



e-1-0-1-3-1-0-3-1-0-------0-3-1-0-1---0---------------------------------
B---------------------------------------3-2---3-2-3---3-2-3---3---------
G-2-------2-------0---0-2-0-------2-------2-------2-2-----2---2---------
D-0-------0---------4-------------0---------------0-------0-------------
A-----------------3-------3---------------0-----------------------------
E-----------------------------------------------------------------------


Part 2

e-5---5---5---3-1-0-------0-3-1-0-1-0-------0-1-3-5---5---5---5---------
B-3---3---3---------------------------3-1-3-------3---3---3---3---------
G-----------------0---0-2-0-------2-----------------------0-------------
D-0-------0---------4-------------0---------------0-------0-------------
A-----------------3-------3---------------0-----------------------------
E-----------------------------------------------------------------------


e-1-0-1-3-1-0-3-1-0-------0-3-1-0-1---0---------------------------------
B---------------------------------------3-2---3-2-3---3-2-3---3---------
G-2-------2-------0---0-2-0-------2-------2-------2-2-----2---2---------
D-0-------0---------4-------------0---------------0-------0-------------
A-----------------3-------3---------------0-----------------------------
E-----------------------------------------------------------------------


e-5---5---5---3-1-0-------0-3-1-0-1-0-------0-1-3-5---5---5---5---------
B-3---3---3---------------------------3-1-3-------3---3---3---3---------
G-----------------0---0-2-0-------2-----------------------0-------------
D-0-------0---------4-------------0---------------0-------0-------------
A-----------------3-------3---------------0-----------------------------
E-----------------------------------------------------------------------


e-1-0-1-3-1-0-3-1-0-------0-3-1-0-1---0---------------------------------
B---------------------------------------3-2---3-2-3---3-2-3---3---------
G-2-------2-------0---0-2-0-------2-------2-------2-2-----2---2---------
D-0-------0---------4-------------0---------------0-------0-------------
A-----------------3-------3---------------0-----------------------------
E-----------------------------------------------------------------------


Part 3

e-1.--1-----------0-------0-3-1-0-1-0---------------------0---0---------
B-1.--1-------------------------------3-1---3-2-0-2-0-2-3-2---2---------
G-2.--2-----------0---0-2-0-------2-------2-------2---------------------
D-------------------4-------------0-------------------------------------
A-------------0-2-3-------3---------------0-------0-------0-------------
E-1.--1---1-3-----------------------------------------------------------


e-1.--1-----------0-------0-3-1-0-1---0---------------------------------
B-1.--1---------------------------------3-2---3-2-3---3-2-3---3---------
G-2.--2-----------0---0-2-0-------2-------2-------2-2-----2---2---------
D-------------------4-------------0---------------0-------0-------------
A-------------0-2-3-------3---------------0-----------------------------
E-1.--1---1-3-----------------------------------------------------------


e-1.--1-----------0-------0-3-1-0-1-0---------------------0---0---------
B-1.--1-------------------------------3-1---3-2-0-2-0-2-3-2---2---------
G-2.--2-----------0---0-2-0-------2-------2-------2---------------------
D-------------------4-------------0-------------------------------------
A-------------0-2-3-------3---------------0-------0-------0-------------
E-1.--1---1-3-----------------------------------------------------------


e-1.--1-----------0-------0-3-1-0-1---0---------------------------------
B-1.--1---------------------------------3-2---3-2-3---3-2-3---3~--------
G-2.--2-----------0---0-2-0-------2-------2-------2-2-----2---2~--------
D-------------------4-------------0---------------0-------0-------------
A-------------0-2-3-------3---------------0-----------------------------
E-1.--1---1-3-----------------------------------------------------------