20140929

NAGAOKA RYOSUKE PETROLZ TAB (FROM SLEEPERS FILM)

Nagaoka Ryosuke sings Petrolz from Sleepers film with a single acoustic guitar.
There is a great (however not note-for-note) cover that may help you too.
It is played in half-step down tuning.
See the TAB under the video.



NAGAOKA RYOSUKE PETROLZ TAB

GP5 + GP6 + PDF >>

Part 1

D#-----------4-----4-----4---4-----5-----5-------5---------5------------
A#-5-------x-5---x-5-----5-x-5---x-5-----5-x-x-x-5h7-5-----5---x-x------
F#-6-------x-6---x-6-----6-x-6---x-6-----6-x-x-x-------6---6---x-x------
C#-6-------x-6---x-6-----6-x-6---x-7-----7-x-x-x---------7-7---x-x------
G#-x-------x-----x-x-------x-----x-x-----x-x-x-x-----------x---x-x------
D#-5-----------x---5-----------x---7-----7-----------------7------------


D#-------4-------4-----------------------------------4---4---4----------
A#-4-----4-x-x-x-4-x-----------4-x-4-----4-x-x-x-5-x-4h5-4---4-----x----
F#-4-----4-x-x-x-4-x-----------4-x-4-----4-x-x-x-4-x-------6---6-4-x----
C#-4-----4-x-x-x-4-x-----4-----4-x-x-----x-x-x-x-x-x---------------x----
G#-x-------x-x-x---x-4h6---6-6---x-4-----4-x-x-x-4-x--------------------
D#-4--------------------------------------------------------------------


D#-4-----4-------4---4-4---5-7-5-x-5-----5-----5------------------------
A#-5-----5-x-x-x-5-x-5-5-x-5-5-5-x-5-----5-x-x-5h7-5---5---5---x-x------
F#-6-----6-x-x-x-6-x-6-6-x---------6-----6-x-x-----4h6-4---4---x-x------
C#-6-----6-x-x-x-6-x-6-6-x---------7-----7-x-x-----------7---7-x-x------
G#-x-----x-x-x-x-x-x-x-x-x---------x-----x-x-x-----------------x-x------
D#-5-----5-------5---5-5-----------7-----7------------------------------



D#-4-----4---------x-2-x-x-2-4-2-x--------------------------------------
A#-4-----4-x-x-2-4-x-2-x-x-2-4-2-x-4-----4-x-x-x-5---5-5-5-5-5-x-x------
F#-4-----4-x-x-2-4-x-------------x-4-----4-x-x-x-4---4-4-4-4-4-x-x------
C#-4-----4-x-x---------------------x-----x-x-x-x-2---2-2-2-2-2-x-x------
G#-x-----x-x-x---------------------4-----4-x-x-x-4---4-4-4-4-4-x-x------
D#-4-----4--------------------------------------------------------------



Part 2 - Chorus

D#-4---4-4---------------4-4-------5-----5---------5---5-5-5------------
A#-5---5-5-x-x-x-x-x-x-x-5-5---x-x-5-----5-x-x-x-x-5---5-5-5---x-x------
F#-6---6-6-x-x-x-x-x-x-x-6-6---x-x-6-----6-x-x-x-x-6---6-6-6---x-x------
C#-6---6-6-x-x-x-x-x-x-x-6-6---x-x-7-----7-x-x-x-x-7---7-7-7---x-x------
G#-x---x-x-x-x-x-x-x-x-x-x-x---x-x-x-----x-x-x-x-x-x---x-x-x---x-x------
D#-5---5-5---------------5-5-------7-----7---------7---7-7-7------------


D#-4---4-4-----------4-4-4-4-4------------------------------------------
A#-4---4-4-x-x-x-x-x-4-4-4-4-4-x-x-4---4-4-x-x-x-x-x-5-5-5-5-5-x-x------
F#-4---4-4-x-x-x-x-x-4-4-4-4-4-x-x-4---4-4-x-x-x-x-x-4-4-4-4-4-x-x------
C#-4---4-4-x-x-x-x-x-4-4-4-4-4-x-x-x---x-x-x-x-x-x-x-2-2-2-2-2-x-x------
G#-x---x-x-x-x-x-x-x-x-x-x-x-x-x-x-4---4-4-x-x-x-x-x-4-4-4-4-4-x-x------
D#-4---4-4-----------4-4-4-4-4------------------------------------------


D#-4-----4-----------4-4-4-4-4-----5-----------------------5------------
A#-5-----5-x-x-x-x-x-5-5-5-5-5-x-x-5-------x-x-x-x-x-x-x-x-5---x-x------
F#-6-----6-x-x-x-x-x-6-6-6-6-6-x-x-6-------x-x-x-x-x-x-x-x-6---x-x------
C#-6-----6-x-x-x-x-x-6-6-6-6-6-x-x-7-------x-x-x-x-x-x-x-x-7---x-x------
G#-x-----x-x-x-x-x-x-x-x-x-x-x-x-x-x-------x-x-x-x-x-x-x-x-x---x-x------
D#-5-----5-----------5-5-5-5-5-----7-----------------------7------------


D#-4---4-4-----------4-4-4-4--------------------------------------------
A#-4---4-4-x-x-x-x-x-4-4-4-4-x-x-x-4---4-4-x-x-x-x-4---4-4-4-x-x-x------
F#-4---4-4-x-x-x-x-x-4-4-4-4-x-x-x-4---4-4-x-x-x-x-4---4-4-4-x-x-x------
C#-4---4-4-x-x-x-x-x-4-4-4-4-x-x-x-x---x-x-x-x-x-x-x---x-x-x-x-x-x------
G#-x---x-x-x-x-x-x-x-x-x-x-x-x-x-x-4---4-4-x-x-x-x-4---4-4-4-x-x-x------
D#-4---4-4-----------4-4-4-4--------------------------------------------



Part 3

D#-7-----7-7---7-7---7-7-7-x-9-x-0-4---4-4-4---4-4-4-4-4-4-x-7-x-0------
A#-5-----5-5---5-5---5-5-5-x---x---x---x-x-x---x-----------x---x--------
F#-6-----6-6---6-6---6-6-6-x---x---x---x-x-x---x-----------x---x--------
C#-7-----7-7---7-7---7-7-7-x---x---2---2-2-2---2-----------x---x--------
G#-0-----0-0---0-0---0-0-0-x---x---2---2-2-2---2------------------------
D#---------------------------------0---0-0-0---0------------------------


D#-2---2-2-2-x-2-2-x-2-2-2-x-4-x-x--------------------------------------
A#-4---4-4-4-x-4-4-x-4-4-4-x-4-x-x-4---4-4-x-4-x-4-x-4-4-4-4-4-x-x------
F#-4---4-4-4-x-4-4-x-4-4-4-x-4-x-x-4---4-4-x-4-x-4-x-4-4-4-4-4-x-x------
C#-x---x-x-x-x-x-x-x-x-x-x-x---x-x-x---x-x-x-x-x-x-x-x-x-x-x-x-x-x------
G#-x---x-x-x-x-x-x-x-x-x-x-x-------4---4-4-x-4-x-4-x-4-4-4-4-4-x-x------
D#-4---4-4-4-x-4-4-x-4-4-4-x--------------------------------------------


D#-7---7-7-7-----7---7---7-7-7-7---5---5-5-5-5-5-5---5-----5-5----------
A#-5---5-5-5-x-x-5-x-5-x-5-5-5-5-x-5---5-5-5-5-5-5h7-5-----5-5-x-x------
F#-6---6-6-6-x-x-6-x-6-x-6-6-6-6-x-6---6-6-6-6-6-------6---6-6-x-x------
C#-7---7-7-7-x-x-7-x-7-x-7-7-7-7-x-7---7-7-7-7-7---------7-7-7-x-x------
G#-0---0-0-0-x-x-0-x-0-x-0-0-0-0-x-x---x-x-x-x-x-----------x-x-x-x------
D#---------------------------------7---7-7-7-7-7-----------7-7----------


D#-4---4-4---2-4-2-x-x-2-4-2--------------------------------------------
A#-4---4-4-x-2-4-2-x-x-2-4-2-4-2-x-4-----4-x-x-x-5---5-5-5-5-5-5-x------
F#-4---4-4-x-----------------4-2-x-4-----4-x-x-x-4---4-4-4-4-4-4-x------
C#-4---4-4-x---------------------x-x-----x-x-x-x-2---2-2-2-2-2-2-x------
G#-x---x-x-x---------------------x-4-----4-x-x-x-4---4-4-4-4-4-4-x------
D#-4---4-4--------------------------------------------------------------



Part 4 - Verse

D#-4-4-4-4-------------------------2---2-2-------2---2-2-2-2-2----------
A#-5-5-5-5-x-x-x-x-x-x-x-x-x-x-x-x-3---3-3-x-x-x-3-x-3-3-3-3-3-x-x------
F#-6-6-6-6-x-x-x-x-x-x-x-x-x-x-x-x-4---4-4-x-x-x-4-x-4-4-4-4-4-x-x------
C#-6-6-6-6-x-x-x-x-x-x-x-x-x-x-x-x-4---4-4-x-x-x-4-x-4-4-4-4-4-x-x------
G#-x-x-x-x-x-x-x-x-x-x-x-x-x-x-x-x-x---x-x-x-x-x-x-x-x-x-x-x-x-x-x------
D#-5-5-5-5-------------------------3---3-3-------3---3-3-3-3-3----------


D#-2---2-2-------2---------2-2-2---x---x-x-------x---x-x-x-x-x----------
A#-2---2-2-x-x-x-2-x-x-x-x-2-2-2-x-1---1-1-x-x-x-1-x-1-1-1-1-1-x-x------
F#-2---2-2-x-x-x-2-x-x-x-x-2-2-2-x-2---2-2-x-x-x-2-x-2-2-2-2-2-x-x------
C#-2---2-2-x-x-x-2-x-x-x-x-2-2-2-x-2---2-2-x-x-x-2-x-2-2-2-2-2-x-x------
G#-x---x-x-x-x-x-x-x-x-x-x-x-x-x-x-x---x-x-x-x-x-x-x-x-x-x-x-x-x-x------
D#-2---2-2-------2---------2-2-2---1---1-1-------1---1-1-1-1-1----------


D#-4-4-4-4-----------------4-------2---2-2-------2---2---2-2-2----------
A#-5-5-5-5-x-x-x-x-x-x-x-x-5-x-x-x-3---3-3-x-x-x-3-x-2h3-3-3-3-x-x------
F#-6-6-6-6-x-x-x-x-x-x-x-x-6-x-x-x-4---4-4-x-x-x-4-x-4---4-4-4-x-x------
C#-6-6-6-6-x-x-x-x-x-x-x-x-6-x-x-x-4---4-4-x-x-x-4-x-4---4-4-4-x-x------
G#-x-x-x-x-x-x-x-x-x-x-x-x-x-x-x-x-x---x-x-x-x-x-x-x-x---x-x-x-x-x------
D#-5-5-5-5-----------------5-------3---3-3-------3---3---3-3-3----------


D#-2-----2-------------2-2-2-2-----x-x-x-x------------------------------
A#-2-----2-x-x-x-x-x-x-2-2-2-2-x-x-1-1-1-1-x-x-x-x----------------------
F#-2-----2-x-x-x-x-x-x-2-2-2-2-x-x-2-2-2-2-x-x-x-x----------------------
C#-2-----2-x-x-x-x-x-x-2-2-2-2-x-x-2-2-2-2-x-x-x-x----------------------
G#-x-----x-x-x-x-x-x-x-x-x-x-x-x-x-x-x-x-x-x-x-x-x----------------------
D#-2-----2-------------2-2-2-2-----1-1-1-1---------0---2---3---5--------


D#-7-----7---7-----7-------6-------5-3-5-3-5---5-5-5---5-5--------------
A#-7-----7-x-7-x-x-7---x-x-6---x-x-5-3-5-3-5---5-5-5---5-5-x-x-x-x------
F#-7-----7-x-7-x-x-7---x-x-6---x-x---------5---5-5-5---5-5-x-x-x-x------
C#-7-----7-x-7-x-x-7---x-x-6---x-x-----------------5---5-5-x-x-x-x------
G#-x-----x-x-x-x-x-x---x-x-x---x-x-----------------x---x-x-x-x-x-x------
D#-7-----7---7-----7-------6-----------------------5---5-5--------------


D#-7-----7---------7-------6-------5---5-5---5-----5---5-5-6---6-6------
A#-7-----7-x-x-x-x-7---x-x-6---x-x-5---5-5-x-5-x-x-5---5-5-6---6-6------
F#-7-----7-x-x-x-x-7---x-x-6---x-x-5---5-5-x-5-x-x-5---5-5-6---6-6------
C#-7-----7-x-x-x-x-7---x-x-6---x-x-5---5-5-x-5-x-x-5---5-5-6---6-6------
G#-x-----x-x-x-x-x-x---x-x-x---x-x-x---x-x-x-x-x-x-x---x-x-x---x-x------
D#-7-----7---------7-------6-------5---5-5---5-----5---5-5-6---6-6------


D#-0---0-0-0-0-0-0-0---0-0---------0-0-0-0-0---0-0---0-0-0-0---0-0------
A#-0---0-0-0-0-0-0-0---0-0---------0-0-0-0-0---0-0---0-0-0-0---0-0------
F#-7---7-7-7-7-7-7-7---7-7-6---6-6-5-5-5-5-5---5-5---5-5-5-5---5-5------
C#-7---7-7-7-7-7-7-7---7-7-6---6-6-5-5-5-5-5---5-5---5-5-5-5---5-5------
G#-x---x-x-x-x-x-x-x---x-x-x---x-x-x-x-x-x-x---x-x---x-x-x-x---x-x------
D#-7---7-7-7-7-7-7-7---7-7-6---6-6-5-5-5-5-5---5-5---5-5-5-5---5-5------


D#-----0-0-0---0-0-0---0-0----------------------------------------------
A#-----0-0-0---0-0-0---0-0----------------------------------------------
F#-7---7-7-7---7-7-7---7-7-6---6-6-5---5-5-5---5-5-5-5-5-5-5-5-5-5------
C#-7---7-7-7---7-7-7---7-7-6---6-6-5---5-5-5---5-5-5-5-5-5-5-5-5-5------
G#-x---x-x-x---x-x-x---x-x-x---x-x-x---x-x-x---x-x-x-x-x-x-x-x-x-x------
D#-7---7-7-7---7-7-7---7-7-6---6-6-5---5-5-5---5-5-5-5-5-5-5-5-5-5------


D#-5---5-5-5-5-5-5------------------------------------------------------
A#-6---6-6-6-6-6-6-8---8-8-8-8-8-8-7.--x-x-x-x-x-x----------------------
F#-7---7-7-7-7-7-7-7---7-7-7-7-7-7-7.--x-x-x-x-x-x----------------------
C#-7---7-7-7-7-7-7-8---8-8-8-8-8-8-7.--x-x-x-x-x-x----------------------
G#-x---x-x-x-x-x-x-6---6-6-6-6-6-6-5.--x-x-x-x-x-x----------------------
D#-6---6-6-6-6-6-6------------------------------------------------------



Chorus 2

D#-4---4-4---4---4-4---4-4-4-4-----5---5-5-5-5-5-5-5---5-5-5------------
A#-5---5-5-x-5---5-5---5-5-5-5-x-x-5---5-5-5-5-5-5-5---5-5-5---x-x------
F#-6---6-6-x-6---6-6---6-6-6-6-x-x-6---6-6-6-6-6-6-6---6-6-6---x-x------
C#-6---6-6-x-6---6-6---6-6-6-6-x-x-7---7-7-7-7-7-7-7---7-7-7---x-x------
G#-x---x-x-x-x---x-x---x-x-x-x-x-x-x---x-x-x-x-x-x-x---x-x-x---x-x------
D#-5---5-5---5---5-5---5-5-5-5-----7---7-7-7-7-7-7-7---7-7-7------------


D#-4---4-4---4-4-4-4-4-4-4-4-4------------------------------------------
A#-4---4-4-x-4-4-4-4-4-4-4-4-4-x-x-4---4-4-x-4-4-4-4---4-4-4-4-x-x------
F#-4---4-4-x-4-4-4-4-4-4-4-4-4-x-x-4---4-4-x-4-4-4-4---4-4-4-4-x-x------
C#-4---4-4-x-4-4-4-4-4-4-4-4-4-x-x-x---x-x-x-x-x-x-x---x-x-x-x-x-x------
G#-x---x-x-x-x-x-x-x-x-x-x-x-x-x-x-4---4-4-x-4-4-4-4---4-4-4-4-x-x------
D#-4---4-4---4-4-4-4-4-4-4-4-4------------------------------------------


D#-4---4-4---4-----4---4-4-4-4-----5---5-5-5-5---5-5---5-5-5-5----------
A#-5---5-5-x-5-x-x-5---5-5-5-5-x-x-5---5-5-5-5-x-5-5---5-5-5-5-x-x------
F#-6---6-6-x-6-x-x-6---6-6-6-6-x-x-6---6-6-6-6-x-6-6---6-6-6-6-x-x------
C#-6---6-6-x-6-x-x-6---6-6-6-6-x-x-7---7-7-7-7-x-7-7---7-7-7-7-x-x------
G#-x---x-x-x-x-x-x-x---x-x-x-x-x-x-x---x-x-x-x-x-x-x---x-x-x-x-x-x------
D#-5---5-5---5-----5---5-5-5-5-----7---7-7-7-7---7-7---7-7-7-7----------


D#-4---4-4---------4-4-4-4-4-4------------------------------------------
A#-4---4-4-x-x-x-x-4-4-4-4-4-4-x-x-5---5-5-x-5-5-5-5---5-5-5---5-5------
F#-4---4-4-x-x-x-x-4-4-4-4-4-4-x-x-4---4-4-x-4-4-4-4---4-4-4---4-4------
C#-4---4-4-x-x-x-x-4-4-4-4-4-4-x-x-2---2-2-x-2-2-2-2---2-2-2---2-2------
G#-x---x-x-x-x-x-x-x-x-x-x-x-x-x-x-4---4-4-x-4-4-4-4---4-4-4---4-4------
D#-4---4-4---------4-4-4-4-4-4------------------------------------------


D#----------------------------------------------------------------------
A#-x-5-x-5-x-5-x-4/5-5-5-5-5-5-x-x--------------------------------------
F#-x-4-x-4-x-4-x-4---4-4-4-4-4-x-x--------------------------------------
C#-x-x-x-x-x-x-x-x---x-x-x-x-x-x-x--------------------------------------
G#-x-4-x-4-x-4-x-4---4-4-4-4-4-x-x--------------------------------------
D#----------------------------------------------------------------------



Verse 2

D#-4---4-4-------------------------3---3-3-------0-3-3-3-3-3---3-3------
A#-5---5-5-x-x-x-x-x-x-x-x-x-x-x-x-0---0-0-x-x-x-0-0-0-0-0-0---0-0------
F#-6---6-6-x-x-x-x-x-x-x-x-x-x-x-x-0---0-0-x-x-x-0-0-0-0-0-0---0-0------
C#-6---6-6-x-x-x-x-x-x-x-x-x-x-x-x-0---0-0-x-x-x-0-0-0-0-0-0---0-0------
G#-x---x-x-x-x-x-x-x-x-x-x-x-x-x-x-2---2-2-x-x-x---2-2-2-2-2---2-2------
D#-5---5-5-------------------------3---3-3---------3-3-3-3-3---3-3------


D#-2-----2-------------------------x---x-x-------x-x-x-x-x-x-x----------
A#-2-----2-x-x-x-x-x-x-x-x-x-x-x-x-1---1-1-x-x-x-1-1-1-1-1-1-1-x-x------
F#-2-----2-x-x-x-x-x-x-x-x-x-x-x-x-2---2-2-x-x-x-2-2-2-2-2-2-2-x-x------
C#-2-----2-x-x-x-x-x-x-x-x-x-x-x-x-2---2-2-x-x-x-2-2-2-2-2-2-2-x-x------
G#-x-----x-x-x-x-x-x-x-x-x-x-x-x-x-x---x-x-x-x-x-x-x-x-x-x-x-x-x-x------
D#-2-----2-------------------------1---1-1-------1-1-1-1-1-1-1----------


D#-4-4-4-4-4-----------------------2-2-2-2-------2-2-2-2-2-2------------
A#-5-5-5-5-5-x-x-x-x-x-x-x---------3-3-3-3-x-x-x-3-3-3-3-3-3---x-x------
F#-6-6-6-6-6-x-x-x-x-x-x-x---------4-4-4-4-x-x-x-4-4-4-4-4-4---x-x------
C#-6-6-6-6-6-x-x-x-x-x-x-x---------4-4-4-4-x-x-x-4-4-4-4-4-4---x-x------
G#-x-x-x-x-x-x-x-x-x-x-x-x---------x-x-x-x-x-x-x-x-x-x-x-x-x---x-x------
D#-5-5-5-5-5---------------5---5-5-3-3-3-3-------3-3-3-3-3-3------------


D#-2---2-2-2-----2-2-2-2-2-2-2-----x---x-x-x-x-x-x----------------------
A#-2---2-2-2-x-x-2-2-2-2-2-2-2-x-x-1---1-1-1-1-1-1----------------------
F#-2---2-2-2-x-x-2-2-2-2-2-2-2-x-x-2---2-2-2-2-2-2----------------------
C#-2---2-2-2-x-x-2-2-2-2-2-2-2-x-x-2---2-2-2-2-2-2----------------------
G#-x---x-x-x-x-x-x-x-x-x-x-x-x-x-x-x---x-x-x-x-x-x----------------------
D#-2---2-2-2-----2-2-2-2-2-2-2-----1---1-1-1-1-1-1-0---2---3---5--------


D#---------7-7-----7---------------5-3-5-3-5---5-5-5---5-5--------------
A#---------7-7-x-x-7---x-x-6---x-x-5-3-5-3-5---5-5-5---5-5-x-x-x-x------
F#-7---7-7-7-7-x-x-7---x-x-6---x-x---------5---5-5-5---5-5-x-x-x-x------
C#-7---7-7-7-7-x-x-7---x-x-6---x-x-----------------5---5-5-x-x-x-x------
G#-x---x-x-x-x-x-x-x---x-x-x---x-x-----------------x---x-x-x-x-x-x------
D#-7---7-7-7-7-----7-------6-----------------------5---5-5--------------


D#-------7---------7---------------5---5-5-5-5-5-5-5---5-5--------------
A#-------7-x-x-x-x-7---x-x-6---x-x-5---5-5-5-5-5-5-5---5-5-6---6-6------
F#-7---7-7-x-x-x-x-7---x-x-6---x-x-5---5-5-5-5-5-5-5---5-5-6---6-6------
C#-7---7-7-x-x-x-x-7---x-x-6---x-x-5---5-5-5-5-5-5-5---5-5-6---6-6------
G#-x---x-x-x-x-x-x-x---x-x-x---x-x-x---x-x-x-x-x-x-x---x-x-x---x-x------
D#-7---7-7---------7-------6-------5---5-5-5-5-5-5-5---5-5-6---6-6------


D#-0---0-0-0---0-0-0---0-0-----------------0---0-0---------0---0-0------
A#-0---0-0-0---0-0-0---0-0-----------------0---0-0---------0---0-0------
F#-7---7-7-7---7-7-7---7-7-6---6-6-5---5-5-5---5-5-5-5-5-5-5---5-5------
C#-7---7-7-7---7-7-7---7-7-6---6-6-5---5-5-5---5-5-5-5-5-5-5---5-5------
G#-x---x-x-x---x-x-x---x-x-x---x-x-x---x-x-x---x-x-x-x-x-x-x---x-x------
D#-7---7-7-7---7-7-7---7-7-6---6-6-5---5-5-5---5-5-5-5-5-5-5---5-5------


D#---------0------------------------------------------------------------
A#---------0------------------------------------------------------------
F#-7---7-7-7---7-7-7-7-7-7-6---6-6-5---5-5-5-5-5-5----------------------
C#-7---7-7-7---7-7-7-7-7-7-6---6-6-5---5-5-5-5-5-5----------------------
G#-x---x-x-x---x-x-x-x-x-x-x---x-x-x---x-x-x-x-x-x----------------------
D#-7---7-7-7---7-7-7-7-7-7-6---6-6-5---5-5-5-5-5-5-0---2---3---5--------


D#-5---5-5-5-5-5-5------------------------------------------------------
A#-6---6-6-6-6-6-6-8---8-8-8-8-8-8-7.--x-x-x-x-x-x----------------------
F#-7---7-7-7-7-7-7-7---7-7-7-7-7-7-7.--x-x-x-x-x-x----------------------
C#-7---7-7-7-7-7-7-8---8-8-8-8-8-8-7.--x-x-x-x-x-x----------------------
G#-x---x-x-x-x-x-x-6---6-6-6-6-6-6-5.--x-x-x-x-x-x----------------------
D#-6---6-6-6-6-6-6------------------------------------------------------



Chorus 3

D#-4-4-4-4---4---4-4---4-4-4-4-----5---5-5---5-5-5-5---5-5-5------------
A#-5-5-5-5-x-5-x-5-5---5-5-5-5-x-x-5---5-5-x-5-5-5-5---5-5-5---x-x------
F#-6-6-6-6-x-6-x-6-6---6-6-6-6-x-x-6---6-6-x-6-6-6-6---6-6-6---x-x------
C#-6-6-6-6-x-6-x-6-6---6-6-6-6-x-x-7---7-7-x-7-7-7-7---7-7-7---x-x------
G#-x-x-x-x-x-x-x-x-x---x-x-x-x-x-x-x---x-x-x-x-x-x-x---x-x-x---x-x------
D#-5-5-5-5---5---5-5---5-5-5-5-----7---7-7---7-7-7-7---7-7-7------------


D#-4---4-4---4-----4---4-4-4-4------------------------------------------
A#-4---4-4-x-4-x-x-4---4-4-4-4-x-x-4---4-4-x-x-x-x-4-----4-4-4-x-x------
F#-4---4-4-x-4-x-x-4---4-4-4-4-x-x-4---4-4-x-x-x-x-4-----4-4-4-x-x------
C#-4---4-4-x-4-x-x-4---4-4-4-4-x-x-x---x-x-x-x-x-x-x-----x-x-x-x-x------
G#-x---x-x-x-x-x-x-x---x-x-x-x-x-x-4---4-4-x-x-x-x-4-----4-4-4-x-x------
D#-4---4-4---4-----4---4-4-4-4------------------------------------------


D#-4---4-4---4-4-4-4---4-4-4-------5---5-5-5---5-5-5-5-5-5-5---5-5------
A#-5---5-5-x-5-5-5-5---5-5-5---x-x-5---5-5-5---5-5-5-5-5-5-5---5-5------
F#-6---6-6-x-6-6-6-6---6-6-6---x-x-6---6-6-6---6-6-6-6-6-6-6---6-6------
C#-6---6-6-x-6-6-6-6---6-6-6---x-x-7---7-7-7---7-7-7-7-7-7-7---7-7------
G#-x---x-x-x-x-x-x-x---x-x-x---x-x-x---x-x-x---x-x-x-x-x-x-x---x-x------
D#-5---5-5---5-5-5-5---5-5-5-------7---7-7-7---7-7-7-7-7-7-7---7-7------


D#-4---4-4---4-4-4-4---4-4-4-4------------------------------------------
A#-4---4-4-x-4-4-4-4---4-4-4-4-x-x-4---4-4---4-4-4-4---4-4-4-4-x-x------
F#-4---4-4-x-4-4-4-4---4-4-4-4-x-x-4---4-4---4-4-4-4---4-4-4-4-x-x------
C#-4---4-4-x-4-4-4-4---4-4-4-4-x-x-x---x-x---x-x-x-x---x-x-x-x-x-x------
G#-x---x-x-x-x-x-x-x---x-x-x-x-x-x-4---4-4---4-4-4-4---4-4-4-4-x-x------
D#-4---4-4---4-4-4-4---4-4-4-4------------------------------------------



Part 5

D#-0---0-0-0---0-0-0-0-0-0-0-0-0-0-0---0-0-0---0-0-0-0-0-0-0-0-0-0------
A#-0---0-0-0---0-0-0-0-0-0-0-0-0-0-0---0-0-0---0-0-0-0-0-0-0-0-0-0------
F#-6---6-6-6---6-6-6-6-6-6-6-6-6-6-6---6-6-6---6-6-6-6-6-6-6-6-6-6------
C#-7---7-7-7---7-7-7-7-7-7-7-7-7-7-7---7-7-7---7-7-7-7-7-7-7-7-7-7------
G#-x---x-x-x---x-x-x-x-x-x-x-x-x-x-x---x-x-x---x-x-x-x-x-x-x-x-x-x------
D#-7---7-7-7---7-7-7-7-7-7-7-7-7-7-7---7-7-7---7-7-7-7-7-7-7-7-7-7------


D#-0-0-0-0-0-0-0-0---0-0-0-0-0-0-0-0-0-0-0-0-0-0-0-0-0---0-0-0-0-0------
A#-0-0-0-0-0-0-0-0---0-0-0-0-0-0-0-0-0-0-0-0-0-0-0-0-0---0-0-0-0-0------
F#-6-6-6-6-6-6-6-8---8-8-8-8-8-8-8-4-4-4-4-4-4-4-4-1-1---1-1-1-1-1------
C#-7-7-7-7-7-7-7-9---9-9-9-9-9-9-9-5-5-5-5-5-5-5-5-2-2---2-2-2-2-2------
G#-x-x-x-x-x-x-x-x---x-x-x-x-x-x-x-x-x-x-x-x-x-x-x-x-x---x-x-x-x-x------
D#-7-7-7-7-7-7-7-9---9-9-9-9-9-9-9-5-5-5-5-5-5-5-5-2-2---2-2-2-2-2------


D#-0-0-0-0-0-0-0-0-0-0-0-0-0-0-0-0-0---0-0-0-0-0-0---0-0-0-0-0-0-0------
A#-0-0-0-0-0-0-0-0-0-0-0-0-0-0-0-0-0---0-0-0-0-0-0---0-0-0-0-0-0-0------
F#-6-6-6-6-6-6-6-6-8-8-8-8-8-8-8-8-4---4-4-4-4-4-1---1-1-1-1-1-1-1------
C#-7-7-7-7-7-7-7-7-9-9-9-9-9-9-9-9-5---5-5-5-5-5-2---2-2-2-2-2-2-2------
G#-x-x-x-x-x-x-x-x-x-x-x-x-x-x-x-x-x---x-x-x-x-x-x---x-x-x-x-x-x-x------
D#-7-7-7-7-7-7-7-7-9-9-9-9-9-9-9-9-5---5-5-5-5-5-2---2-2-2-2-2-2-2------


D#-0-0-0-0-0-0-0-0-0-0-0-0-0---0-0-0---0-0-0-------7-7-7---7-7----------
A#-0-0-0-0-0-0-0-0-0-0-0-0-0---0-0-0---0-0-0---x-x-7-7-7---7-7-x-x------
F#-6-6-6-6-6-6-6-6-6-6-6-6-6---6-6-6---6-6-6---x-x-7-7-7---7-7-x-x------
C#-7-7-7-7-7-7-7-7-7-7-7-7-7---7-7-7---7-7-7---x-x-6-6-6---6-6-x-x------
G#-x-x-x-x-x-x-x-x-x-x-x-x-x---x-x-x---x-x-x---x-x-x-x-x---x-x-x-x------
D#-7-7-7-7-7-7-7-7-7-7-7-7-7---7-7-7---7-7-7-------6-6-6---6-6----------



Part 6

D#-7---7-7-7-7-7-7-7-7-7-7-x-9-x-0-5---5-5-5---5-5-5-5-5-5--------------
A#-5---5-5-5-5-5-5-5-5-5-5-x---x---5---5-5-5---5-5-5-5-5-5-x-7-x-x------
F#-6---6-6-6-6-6-6-6-6-6-6-x---x---6---6-6-6---6-6-6-6-6-6-x-7-x-x------
C#-7---7-7-7-7-7-7-7-7-7-7-x---x---7---7-7-7---7-7-7-7-7-7-x-7-x-x------
G#-0---0-0-0-0-0-0-0-0-0-0-x---x---x---x-x-x---x-x-x-x-x-x-x---x-x------
D#---------------------------------7---7-7-7---7-7-7-7-7-7--------------


D#-4-4-4-4-4---4-4-4-4-4-4-4-4------------------------------------------
A#-4-4-4-4-4---4-4-4-4-4-4-4-4-x-4-x-4-4-4-5-5-5-5-9-x-5-x-5-5----------
F#-4-4-4-4-4---4-4-4-4-4-4-4-4-x-4-x-4-4-4-4-4-4-4---------6-4----------
C#-4-4-4-4-4---4-4-4-4-4-4-4-4-x-x-x-x-x-x-x-x-x-x-------------6-x------
G#-x-x-x-x-x---x-x-x-x-x-x-x-x-x-4-x-4-4-4-4-4-4-4----------------------
D#-4-4-4-4-4---4-4-4-4-4-4-4-4------------------------------------------


D#-4---4-4---4---4-4---4-4-4-4-----5-5-5-5---5---5---5-----5-5-5--------
A#-5---5-5-x-5-x-5-5---5-5-5-5-x-x-5-5-5-5-x-5-x-5h7-5-----5-5-5-x------
F#-6---6-6-x-6-x-6-6---6-6-6-6-x-x-6-6-6-6-x-6-x-------6---6-6-6-x------
C#-6---6-6-x-6-x-6-6---6-6-6-6-x-x-7-7-7-7-x-7-x---------7-7-7-7-x------
G#-x---x-x-x-x-x-x-x---x-x-x-x-x-x-x-x-x-x-x-x-x-----------------x------
D#-5---5-5---5---5-5---5-5-5-5-----7-7-7-7---7--------------------------


D#-4---4-4---2-x-2-4-2--------------------------------------------------
A#-4---4-4-x-2-x-2-4-2-4-2-4---4-x-4---4-4-x-5-x-5-x-4/5-5-5-5-5-x------
F#-4---4-4-x-----------4-2-4---4-x-4---4-4-x-4-x-4-x-4---4-4-4-4-x------
C#-4---4-4-x---------------4---4-x-x---x-x-x-x-x-x-x-x---x-x-x-x-x------
G#-x---x-x-x---------------------x-4---4-4-x-4-x-4-x-4---4-4-4-4-x------
D#-4---4-4--------------------------------------------------------------



Chorus 4

D#-4---4---4-4-4-4---4-4-4-4-4-----5---5-5-5-5-5-5-5---5-5-5-5----------
A#-5---5---5-5-5-5---5-5-5-5-5-x-x-5---5-5-5-5-5-5-5---5-5-5-5-x-x------
F#-6---6---6-6-6-6---6-6-6-6-6-x-x-6---6-6-6-6-6-6-6---6-6-6-6-x-x------
C#-6---6---6-6-6-6---6-6-6-6-6-x-x-7---7-7-7-7-7-7-7---7-7-7-7-x-x------
G#-x---x---x-x-x-x---x-x-x-x-x-x-x-x---x-x-x-x-x-x-x---x-x-x-x-x-x------
D#-5---5---5-5-5-5---5-5-5-5-5-----7---7-7-7-7-7-7-7---7-7-7-7----------


D#-4---4-4-4-4-4---4---4-4-4-4-4----------------------------------------
A#-4---4-4-4-4-4---4---4-4-4-4-4---4---4-4-4-4-4-4-4---4-4-4-4-x-x------
F#-4---4-4-4-4-4---4---4-4-4-4-4---4---4-4-4-4-4-4-4---4-4-4-4-x-x------
C#-4---4-4-4-4-4---4---4-4-4-4-4---x---x-x-x-x-x-x-x---x-x-x-x-x-x------
G#-x---x-x-x-x-x---x---x-x-x-x-x---4---4-4-4-4-4-4-4---4-4-4-4-x-x------
D#-4---4-4-4-4-4---4---4-4-4-4-4----------------------------------------


D#-4---4-4-4-4-4-4-4---4-4-4---4-4-5---5-5-5---5-5-5-5-5-5-5-5----------
A#-5---5-5-5-5-5-5-5---5-5-5---5-5-5---5-5-5---5-5-5-5-5-5-5-5-x-x------
F#-6---6-6-6-6-6-6-6---6-6-6---6-6-6---6-6-6---6-6-6-6-6-6-6-6-x-x------
C#-6---6-6-6-6-6-6-6---6-6-6---6-6-7---7-7-7---7-7-7-7-7-7-7-7-x-x------
G#-x---x-x-x-x-x-x-x---x-x-x---x-x-x---x-x-x---x-x-x-x-x-x-x-x-x-x------
D#-5---5-5-5-5-5-5-5---5-5-5---5-5-7---7-7-7---7-7-7-7-7-7-7-7----------


D#-4---4-4-4---4-4-4-4-4-4-4-4------------------------------------------
A#-4---4-4-4---4-4-4-4-4-4-4-4-x-x-4---4-4-4---4-4-4---4-4-4-4-4-4------
F#-4---4-4-4---4-4-4-4-4-4-4-4-x-x-4---4-4-4---4-4-4---4-4-4-4-4-4------
C#-4---4-4-4---4-4-4-4-4-4-4-4-x-x-x---x-x-x---x-x-x---x-x-x-x-x-x------
G#-x---x-x-x---x-x-x-x-x-x-x-x-x-x-4---4-4-4---4-4-4---4-4-4-4-4-4------
D#-4---4-4-4---4-4-4-4-4-4-4-4------------------------------------------



Part 7

D#-------------------0-0-0-0-0-0-0-----0-0-0-0-0-0---0-0-0-0-0-0--------
A#-5-5-5-5-5-5-5-5---5-5-5-5-5-5-5-----0-0-0-0-0-0---0-0-0-0-0-0-x------
F#-6-6-6-6-6-6-6-6---6-6-6-6-6-6-6-6---6-6-6-6-6-6---6-6-6-6-6-6-x------
C#-6-6-6-6-6-6-6-6---6-6-6-6-6-6-6-7---7-7-7-7-7-7---7-7-7-7-7-7-x------
G#-x-x-x-x-x-x-x-x---x-x-x-x-x-x-x-x---x-x-x-x-x-x---x-x-x-x-x-x-x------
D#-5-5-5-5-5-5-5-5---5-5-5-5-5-5-5-7---7-7-7-7-7-7---7-7-7-7-7-7--------


D#-----0-0-0-0-0-0---0-0-0-0-0-0-0--------------------------------------
A#-----0-0-0-0-0-0---0-0-0-0-0-0-0-4---4-4-4-5-5-5---4/5-5-5-5-5-x------
F#-4---4-4-4-4-4-4---4-4-4-4-4-4-4-4---4-4-4-4-4-4---4---4-4-4-4-x------
C#-4---4-4-4-4-4-4---4-4-4-4-4-4-4-x---x-x-x-x-x-x---x---x-x-x-x-x------
G#-x---x-x-x-x-x-x---x-x-x-x-x-x-x-4---4-4-4-4-4-4---4---4-4-4-4-x------
D#-4---4-4-4-4-4-4---4-4-4-4-4-4-4--------------------------------------


D#-4-4---4-4---4-4---4---4---4-4---5---5-5-5-5-5-5-5-5---5-----5--------
A#-5-5---5-5---5-5---5---5---5-5-x-5---5-5-5-5-5-5-5-5h7-5-----5-x------
F#-6-6---6-6---6-6---6---6---6-6-x-6---6-6-6-6-6-6-6-------6---6-x------
C#-6-6---6-6---6-6---6---6---6-6-x-7---7-7-7-7-7-7-7---------7-7-x------
G#-x-x---x-x---x-x---x---x---x-x-x-x---x-x-x-x-x-x-x-------------x------
D#-5-5---5-5---5-5---5---5---5-5---7---7-7-7-7-7-7-7--------------------


D#-4---4-4-4---------4-----2-4-2----------------------------------------
A#-4---4-4-4-x-x-x-x-4-x-x-2-4-2-4-4---4-4-4---4-4-5---5-5-4-5-x-x------
F#-4---4-4-4-x-x-x-x-4-x-x-------4-4---4-4-4---4-4-4---4-4-4-4-x-x------
C#-4---4-4-4-x-x-x-x-4-x-x---------x---x-x-x---x-x-x---x-x-x-x-x-x------
G#-x---x-x-x-x-x-x-x-x-x-x---------4---4-4-4---4-4-4---4-4-4-4-x-x------
D#-4---4-4-4---------4--------------------------------------------------


D#-0--------------------------------------------------------------------
A#-5--------------------------------------------------------------------
F#-6--------------------------------------------------------------------
C#-6--------------------------------------------------------------------
G#-x--------------------------------------------------------------------
D#-5--------------------------------------------------------------------



DOWNLOAD THIS TAB IN GUITAR PRO


  • click 'Free Download'
  • add your e-mail address
  • you will get an e-mail with your download link (in a few seconds)
  • download the Guitar Pro 6 tab + GP5 + PDF
  • and that's all ...