20140914

NICKEL CREEK 21ST OF MAY TAB


There is a nice country guitar intro played in 21st Of May by Nickel Creek.
The extreme part goes until 0:42. Capo on the 3rd fret, standard tuning.
See the TAB under the video.



NICKEL CREEK 21ST OF MAY TAB

GP5 + GP6 + PDF >>

Intro

e-3/5-3-----------------------------------------------------------------
B-------4\3-------------------------------------------------------------
G-----------------------------------------------------------------------
D-----------------------------------------------------------------------
A-----------------------------------------------------------------------
E-----------------------------------------------------------------------


e-----------------------------------------------------------------------
B-1-----1---------------------------------------0-1-------------1-------
G---2-0---2-0-----------------------------0-1-2---------------0---------
D-------------2-1-0-----------------0-1-2-----------------0h2-----------
A---------------------------0-1-2-3-------------------------------------
E-------------------0-1-2-3---------------------------------------------


e-------0-------0-------------------------------------------------------
B-----1-------1---------0-------0-----1---------1-------1-----1---------
G-0h2-----2p0---------0-------0-------0-------0-------0-------0---------
D-----------------0h2-----1p0---------2-----2-------2-----0h2-----------
A---------------------------------3---------------3---------------------
E-----------------------------------------3-----------------------------



e-------0-------0-------0-----------------------------------------------
B-1---1---1---1---1---1-----------------1-------0-------0-----1---------
G-0h2-----2p0-----0-------0-----0-----0-------0-------0-------0---------
D-------------------------2p0-0-----0-------0-------0-----0h2-----------
A-----------------------------------------------------------------------
E---------------------------------3-------3-------3---------------------


e-------0-------0-------------------------------------0-------0---------
B-1---1---1---1---------0-------0-------1-----1---1---1-------0---------
G-0h2-----2p0-----0---0-------0-------2-------0---2---------------------
D-----------------0h2-----1p0-------3-----3-----------------------------
A---------------------------------3-------------------------------------
E-----------------------------------------------------------------------


e-0---------------------------------------------------------------------
B-0-------0-------------0-------0-----1---------1-------1-----1---------
G-2-------0-------0-----0-----0-------0-------0-------0-------0---------
D-2---------------0h2-----1p0---------2-----2-------2-----0h2-----------
A-2---------------x---------------3---------------3---------------------
E-0---------------3-----------------------3-----------------------------


Verse

e-------0-------0-------------------------------------------------------
B-1---1-------1---------0-------0-----1---------1-------1-----1---------
G-0h2-----2p0---------0-------0-------0-------0-------0-------0---------
D-----------------0h2-----1p0---------2-----2-------2-----0h2-----------
A---------------------------------3---------------3---------------------
E-----------------------------------------3-----------------------------


e-------0-------0-------0-----------------------------------------------
B-1---1-------1---1---1-----------------1-------0-------0-----1---------
G-0h2-----2p0-----0-------------0-----0-------0-------0-------0---------
D-------------------------2p0-0-----0-------0-------0-----0h2-----------
A-----------------------------------------------------------------------
E---------------------------------3-------3-------3---------------------


e-------0-------0-------------------------------------0-------0---------
B-1---1-------1---------0-------0-------1-----1---1---1-------0---------
G-0h2-----2p0---------0-------0-------2-------0---2---------------------
D-----------------0h2-----1p0-------3-----3-----------------------------
A---------------------------------3-------------------------------------
E-----------------------------------------------------------------------


e-0----------------------------------------------------3/5-3------------
B-0------0-------------0-------0-----1---------1-----1-------4\3--------
G-2------0-------0-----------0-------0-------0--------------------------
D-2--------------0h2-----1p0---------2-----2----------------------------
A-2--------------x---------------3---------------3----------------------
E-0--------------3-----------------------3------------------------------


e-----------------------------------------------------------------------
B-1-----1---------------------------------------0-1---------------------
G---2-0---2-0-----------------------------0-1-2-------------------------
D-------------2-1-0-----------------0-1-2-------------------------------
A---------------------------0-1-2-3-------------------------------------
E-------------------0-1-2-3---------------------------------------------




DOWNLOAD THIS TAB IN GUITAR PRO



  • click 'Free Download'
  • add your e-mail address
  • you will get an e-mail with your download links (in a few seconds)
  • download the Guitar Pro 6 tab + GP5 + PDF for free
  • and that's all ...


Guitar Pro: a complete workshop for guitarists at an affordable price