20141019

BRITTNI PAIVA LIGHTS UKULELE TAB


Brittni Paiva plays Lights with a nice Ukulele and a Boss ME-70 pedal.
She uses "low G standard" tuning.
TAB under the video.



BRITTNI PAIVA LIGHTS UKULELE TAB

PDF >>

Loop 1

A-3---x-3---x-3---x-3---x-3-3-3-3-2---x-2---x-2---x-2---x-2-2-2-2-------
E-----------------------------------------------------------------------
C-----------------------------------------------------------------------
G-----------------------------------------------------------------------


A-3---x-3---x-3---x-3---x-3-3-3-3-3---x-3---x-3---x-3---x-3-3-3-3-------
E-----------------------------------------------------------------------
C-----------------------------------------------------------------------
G-----------------------------------------------------------------------


Loop 2

A-----------------------------------------------------------------------
E-------5-----------------5-------------3-----------------3-------------
C-------------4---------------4---------------2---------------0---------
G-2-------------------2-----------0-------------------0-----------------


A-----------------------------------------------------------------------
E-------5-----------------5-------------5-----------------5-------------
C-------------5---------------5---------------5---------------5---------
G-5-------------------5-----------7-------------------7-----------------



 - Drums


 - Strum


Main solo

A-----------------------------------------------------------------------
E-------------------------3/5---3~--------------------------------------
C-----------------------------------------------------------------------
G-2---2---0---0h2-------------------------------------------------------


A-3-------2---2-h-3-----------------------------------------------------
E---------------------3-----------3h5~----------------------------------
C---------------------------4.------------------------------------------
G-----------------------------------------------------------------------


A-----------------------------------------------------------------------
E-------------------------3/5---3~--------------------------------------
C-----------------------------------------------------------------------
G-2---2---0---0h2-------------------------------------------------------


A-3-------2---2-h-3-----------------------------------------------------
E---------------------3-----------3h5~----------------------------------
C---------------------------4.------------------------------------------
G-----------------------------------------------------------------------


A-----------3.------3h5---3.------2-------------------------------------
E-3---3/5-------------------------3-------------------------------------
C-----------------------------------------------------------------------
G-----------------------------------------------------------------------


A-0-3~------0-----------------------------------------------------------
E-------------------0---------------------------------------------------
C---------------------------3\2-0-2-------2/4~--------------------------
G-----------------------------------------------------------------------


A-0-------3.------3h5---3.------2---------------------------------------
E---3/5-------------------------3---------------------------------------
C-----------------------------------------------------------------------
G-----------------------------------------------------------------------


A-0-3~------0-----------------------------------------------------------
E-------------------0---------------------------------------------------
C---------------------------3\2-0-2-------2/4~--------------------------
G-----------------------------------------------------------------------


A-0-------3.--3h5-----------------3.------5--------------5/7\5-3--------
E-----3/5-------------5.------5-------------------5--------------5------
C-----------------------------------------------------------------------
G-----------------------------------------------------------------------


A-3h5-----------------3-------5-------7---------------------------------
E---------5.------5-------5---5-----------------------------------------
C-----------------------------------------------------------------------
G-----------------------------------------------------------------------


A-0-------3.--3h5-----------------3.------5--------------5/6\5-3--------
E-----3/5-------------5.------5-------------------5--------------5------
C-----------------------------------------------------------------------
G-----------------------------------------------------------------------


A-3h5-----------------3-------5-------7.------5.------3.----------------
E---------5.------5-------5---5-----------------------------------------
C-----------------------------------------------------------------------
G-----------------------------------------------------------------------


A-2-------3.------2-------3.------2-------3.------7-\-----0.------------
E-----------------------------------------------------------------------
C-----------------------------------------------------------------------
G-----------------------------------------------------------------------


A-2-------3.------2-------3.------2-------3.------3h5p3-0---------------
E-----------------------------------------------------------------------
C-----------------------------------------------------------------------
G-----------------------------------------------------------------------


A-----3.--3h5-----------------3.------5--------------5/7\5-3------------
E-3/5-------------5.------5-------------------5--------------5----------
C-----------------------------------------------------------------------
G-----------------------------------------------------------------------


A-3h5-----------------3-------5-----------------------------------------
E---------5.------5-------5---5-----------------------------------------
C-----------------------------------------------------------------------
G-----------------------------------------------------------------------


A-----------------------------------------------------------------------
E-------------------------3/5---3~--------------------------------------
C-----------------------------------------------------------------------
G-2---2---0---0h2-------------------------------------------------------


A-3-3-3p2-2-2-2h3-3-3---------------------------------------------------
E---------------------3-----------3h5---5---5-5-5-5-3h5---5-x-5-x-5-\---
C---------------------------4.------------------------------------------
G-----------------------------------------------------------------------


A-----------------------------------------------------------------------
E---------------------3/5---3~------------------------------------------
C---------0-------------------------------------------------------------
G-2---0---0h2-----------------------------------------------------------


A-3-3-3p2-2-2-2h3-3-3---------------------------------------------------
E---------------------3-----------3h5---5---5-5-5.----------------------
C---------------------------4.------------------------------------------
G-----------------------------------------------------------------------


A-----3---5.--6.--6\5p3-3-----------------------------------------------
E-3h5-----------------------5---3---------------------------------------
C-----------------------------------------------------------------------
G-----------------------------------------------------------------------


A-------3.------3h5---3.------2-----2-2-2-2-2-2-2-\---------------------
E-3h5-------------------------3-----3-3-3-3-3-3-3-\---------------------
C-----------------------------------------------------------------------
G-----------------------------------------------------------------------


A-0-3~------0-----------------------------------------------------------
E-------------------0---------------------------------------------------
C---------------------------3\2-0-2-------2/4~--------------------------
G-----------------------------------------------------------------------


A-0-----3.--3h5.------3h5-----3.------2-----2-2-2-2-2-2-2-\-------------
E---3/5-------------------------------------3-3-3-3-3-3-3-\-------------
C-----------------------------------------------------------------------
G-----------------------------------------------------------------------


A-0-3~------0-----------------------------------------------------------
E-0-----------------0---------------------------------------------------
C---------------------------3\2-0-2-------2/4~--------------------------
G-----------------------------------------------------------------------


A-0-------3.--3h5-----------------3.------5--------------5/7\5-3--------
E-----3/5-------------5.------5-------------------5--------------5------
C-----------------------------------------------------------------------
G-----------------------------------------------------------------------


A-3h5-----------------3-------5-------7---------------------------------
E---------5.------5-------5---5-----------------------------------------
C-----------------------------------------------------------------------
G-----------------------------------------------------------------------


A-0-------3.--3h5-----------------3.------5--------------5/7\5-3--------
E-----3/5-------------5.------5-------------------5--------------5------
C-----------------------------------------------------------------------
G-----------------------------------------------------------------------


A-3h5-----------------3-------5-------7.------5.------3.----------------
E---------5.------5-------5---5-----------------------------------------
C-----------------------------------------------------------------------
G-----------------------------------------------------------------------


A-2-------3.------2-------3.------2-------3.------7-\-----0.------------
E-------------------------------------------------8-\-------------------
C-----------------------------------------------------------------------
G-----------------------------------------------------------------------


A-2-------3.------2-------3.------2-------3.------3h5p3-0---------------
E-----------------------------------------------------------------------
C-----------------------------------------------------------------------
G-----------------------------------------------------------------------


A-----3.--3h5-----------------3.------5--------------5/7\5-3------------
E-3/5-------------5.------5-------------------5--------------5----------
C-----------------------------------------------------------------------
G-----------------------------------------------------------------------


A-3h5-----------------3-------5-----------------------------------------
E---------5.------5-------5---5-----------------------------------------
C-----------------------------------------------------------------------
G-----------------------------------------------------------------------


Loop 3

A---------x---------------x---------------x---------------x-------------
E-5---x-x-x---x-x-5---x-x-x---x-x-5---x-x-x---x-x-5-x-5-x-x-5-5-5-------
C---------x---------------x---------------x---------------x-------------
G---------x---------------x---------------x---------------x-------------


A---------x---------------x---------------x---------------x-------------
E-5---x-x-x---x-x-5---x-x-x---x-x-5---x-x-x---x-x-5-x-5-x-x-5-5-5-------
C---------x---------------x---------------x---------------x-------------
G---------x---------------x---------------x---------------x-------------


Loop 4

A-------------------------------------3-3-x-3-3-3-3----\----------------
E-------------------------------------5-5-x-5-5-5-5----\----------------
C-----------------------------------------------------------------------
G-----------------------------------------------------------------------


A-----7-7-7-7-7-7-7----\--------------7-7-7-7-7-7-7----\----------------
E-----8-8-8-8-8-8-8----\--------------8-8-8-8-8-8-8----\----------------
C-----------------------------------------------------------------------
G-----------------------------------------------------------------------


A-----3-3-3-3-3-3-3----\--------------3-3-3-3-3-3-3----\----------------
E-----5-5-5-5-5-5-5----\--------------5-5-5-5-5-5-5----\----------------
C-----------------------------------------------------------------------
G-----------------------------------------------------------------------


A-----7-7-7-7-7-7-7----\--------------7-7-7-7-7-7-7----\----------------
E-----8-8-8-8-8-8-8----\--------------8-8-8-8-8-8-8----\----------------
C-----------------------------------------------------------------------
G-----------------------------------------------------------------------


Yeah part

A-----------------3-3-x-3-3-3-3-3------------------3-3-x-3-3-3-3-3------
E-3h5-5-5-x-x-5-x-5-5-x-5-5-5-5-5--3h5-5-5-x-x-5-x-5-5-x-5-5-5-5-5------
C-----------------------------------------------------------------------
G-----------------------------------------------------------------------


A-----------------3-3-x-3-3-3-3-3--7-7-7-7-7-7-7-7-7-7-7-7-7-7-7-7------
E-3h5-5-5-x-x-5-x-5-5-x-5-5-5-5-5--5-5-5-5-5-5-5-5-5-5-5-5-5-5-5-5------
C-----------------------------------------------------------------------
G-----------------------------------------------------------------------


A-12-x-x-12-x-x-12-x-x-12-x-x-12-12-x-x---------------------------------
E-----------------------------------------------------------------------
C-9--x-x-9--x-x-9--x-x-9--x-x-9--9--x-x---------------------------------
G-----------------------------------------------------------------------


A-10-x-x-10-x-x-10-x-x-10-10-10-10/12-x-x-------------------------------
E-----------------------------------------------------------------------
C-7--x-x-7--x-x-7--x-x--7--7--7--7-/9-x-x-------------------------------
G-----------------------------------------------------------------------


A-8-x-x-8-x-x-8-x-x-8-x-x-8/9-9-9--9-x-x-8-x-6-x-x-6/8-8-8-8-x-x-x------
E-----------------------------------------------------------------------
C-5-x-x-5-x-x-5-x-x-5-x-x-5/6-6-6--6-x-x-5-x-3-x-x-3/5-5-5-5-x-x-x------
G-----------------------------------------------------------------------


A-7-x-x-5-x-3-x-3-3-3-x-3-3-/-7-7-7-7-x-5-x--8-x--8-x-7-x-7-7-x-x-x-----
E-8-x-x-7-x-5-x-5-5-5-x-5-5-/-8-8-8-8-x-7-x-10-x-10-x-8-x-8-8-x-x-x-----
C-----------------------------------------------------------------------
G-----------------------------------------------------------------------


A-10-10-10-10-10-10-10-10-10-10-10-10-10-10-10-10-----------------------
E--8--8--8--8--8--8--8--8--8--8--8--8--8--8--8--8-----------------------
C-----------------------------------------------------------------------
G-----------------------------------------------------------------------


A-12-12-12-12-12-12-12-12-12-12-12-12-12-12-12-12-----------------------
E--8--8--8--8--8--8--8--8--8--8--8--8--8--8--8--8-----------------------
C-----------------------------------------------------------------------
G-----------------------------------------------------------------------


A-7-x-x-5-x-x--8-x-x-7-x-x-5/7-7-7--7-x-x-5-x-x--8-x-x-7-x-x-5/7-7-7----
E-8-x-x-7-x-x-10-x-x-8-x-x-7/8-8-8--8-x-x-7-x-x-10-x-x-8-x-x-7/8-8-8----
C-----------------------------------------------------------------------
G-----------------------------------------------------------------------


A-7-x-x-5-x-x--8-x-x-7-x-x-5/7-7-7--7-7-7-7-7-7-7-7-7-\-----------------
E-8-x-x-7-x-x-10-x-x-8-x-x-7/8-8-8--8-8-8-8-8-8-8-8-8-\-----------------
C-----------------------------------------------------------------------
G-----------------------------------------------------------------------


Back to main solo

A-0-------3.--3h5-----------------3.------5--------------5/7\5-3--------
E-----3/5-------------5.------5-------------------5--------------5------
C-----------------------------------------------------------------------
G-----------------------------------------------------------------------


A-3h5-----------------3-------5-------7---------------------------------
E---------5.------5-------5---5-----------------------------------------
C-----------------------------------------------------------------------
G-----------------------------------------------------------------------


A-0-------3.--3h5-----------------3.------5--------------5/7\5-3--------
E-----3/5-------------5.------5-------------------3--------------5------
C-----------------------------------------------------------------------
G-----------------------------------------------------------------------


A-3h5-----------------3-------5-------7-------5.------3.----------------
E---------5.------5-------5---5-----------------------------------------
C-----------------------------------------------------------------------
G-----------------------------------------------------------------------


A-2-------3.------2-------3.------2-------3.------7-\-----0.------------
E-------------------------------------------------8-\-------------------
C-----------------------------------------------------------------------
G-----------------------------------------------------------------------


A-2-------3.------2-------3.------2-------3.------3/5---3-0-------------
E-----------------------------------------------------------------------
C-----------------------------------------------------------------------
G-----------------------------------------------------------------------


Finish

A-----3h5-----------------3.------5---------------5/7\5-3---------------
E-3/5---------5.------5-------------------5---------------5-------------
C-----------------------------------------------------------------------
G-----------------------------------------------------------------------


A-3h5-----------------3-------5~----------------------------------------
E---------5.------5-------5---5~----------------------------------------
C-----------------------------------------------------------------------
G-----------------------------------------------------------------------


A-0-------3.--3h5-----------------3-------5---------------5/7\5-3-------
E-----3/5-------------5.------5-----------3-------3---------------5-----
C-----------------------------------------2-----------2-------------0---
G-----------------------------------------------------------------------


A-5---------------------------5-------7-----------7---0---0---3---------
E-5-------5-------5---8-------5-------------------5---------------------
C-5-----------5-----------5---5---------------5-------------------------
G-----------------------------------------------------------------------


A-5-------0-------0---3-------5---------------5/7\5---3-----------------
E-5---------------------------3-------3-------------------5-------------
C-4-----------4-----------0---2-----------2-------------------0---------
G-----------------------------------------------------------------------


A-5---------------------------5-------7-----------7---0-------3---------
E-5-------5-------5---8-------5---------------5-----------3/5-----------
C-5-----------5-----------5---5-----------5-----------------------------
G-----------------------------------------------------------------------


A-5-------0-------0---3-------5---------------5/6\5---3-----------------
E-5---------------------------3-------3-------------------5-------------
C-4-----------4-----------0---2-----------2-------------------0---------
G-----------------------------------------------------------------------


A-5---------------------------5-------7-----------7---0---0---3---------
E-5-------5-------5---8-------5---------------5-------------------------
C-5-----------5-----------5---5-----------5-----------------------------
G-----------------------------------------------------------------------


A-5-------0-------0---3-------5---------------5/7\5---3-----------------
E-5---------------------------3-------3-------------------5-------------
C-4-----------4-----------0---2-----------2-------------------0---------
G-----------------------------------------------------------------------


A-5---------------------------7~----------------------------------------
E-5-------5-------5---8-------5~----------------------------------------
C-5-----------5-----------5---5~----------------------------------------
G-----------------------------------------------------------------------