20141019

BRITTNI PAIVA LIGHTS UKULELE TAB


Brittni Paiva plays Lights with a nice Ukulele and a Boss ME-70 pedal.
She uses "low G standard" tuning.
Download the TAB under the video



BRITTNI PAIVA LIGHTS UKULELE TAB

GP6 + PDF >>

Loop 1

A-3---x-3---x-3---x-3---x-3-3-3-3-2---x-2---x-2---x-2---x-2-2-2-2-------
E-----------------------------------------------------------------------
C-----------------------------------------------------------------------
G-----------------------------------------------------------------------


A-3---x-3---x-3---x-3---x-3-3-3-3-3---x-3---x-3---x-3---x-3-3-3-3-------
E-----------------------------------------------------------------------
C-----------------------------------------------------------------------
G-----------------------------------------------------------------------


Loop 2

A-----------------------------------------------------------------------
E-------5-----------------5-------------3-----------------3-------------
C-------------4---------------4---------------2---------------0---------
G-2-------------------2-----------0-------------------0-----------------


A-----------------------------------------------------------------------
E-------5-----------------5-------------5-----------------5-------------
C-------------5---------------5---------------5---------------5---------
G-5-------------------5-----------7-------------------7-----------------




 - Drums


 - Strum


Main solo

A-----------------------------------------------------------------------
E-------------------------3/5---3~--------------------------------------
C-----------------------------------------------------------------------
G-2---2---0---0h2-------------------------------------------------------


A-3-------2---2-h-3-----------------------------------------------------
E---------------------3-----------3h5~----------------------------------
C---------------------------4.------------------------------------------
G-----------------------------------------------------------------------


A-----------------------------------------------------------------------
E-------------------------3/5---3~--------------------------------------
C-----------------------------------------------------------------------
G-2---2---0---0h2-------------------------------------------------------


A-3-------2---2-h-3-----------------------------------------------------
E---------------------3-----------3h5~----------------------------------
C---------------------------4.------------------------------------------
G-----------------------------------------------------------------------


A-----------3.------3h5---3.------2-------------------------------------
E-3---3/5-------------------------3-------------------------------------
C-----------------------------------------------------------------------
G-----------------------------------------------------------------------


A-0-3~------0-----------------------------------------------------------
E-------------------0---------------------------------------------------
C---------------------------3\2-0-2-------2/4~--------------------------
G-----------------------------------------------------------------------


A-0-------3.------3h5---3.------2---------------------------------------
E---3/5-------------------------3---------------------------------------
C-----------------------------------------------------------------------
G-----------------------------------------------------------------------


A-0-3~------0-----------------------------------------------------------
E-------------------0---------------------------------------------------
C---------------------------3\2-0-2-------2/4~--------------------------
G-----------------------------------------------------------------------






DOWNLOAD THE COMPLETE TAB HERE



  • click 'Free Download'
  • add your e-mail address
  • you will get an e-mail with your download links (in a few seconds)
  • download the Guitar Pro 6 tab + PDF for free
  • and that's all ...


Guitar Pro: a complete workshop for guitarists at an affordable price