20141026

MIRAI NIKKI KUUSOU MESOROGIWI TAB (GUITAR COVER BY KIKAHO)

Mirai Nikki - Kuusou Mesorogiwi covered and arranged by KiKaHo.
Great headbanger riffs in half-step down tuning and a brilliant solo.
(the "re-upload" video is in standard tuning)
Download the Guitar Pro Tab below.


MIRAI NIKKI KUUSOU MESOROGIWI TAB                     

GP5 + GP6 + PDF >>

#1

D#----------------------------------------------------------------------
A#----------------------------------------------------------------------
F#----------------------------------------------------------------------
C#----------------------------------------------------------------------
G#----------------------------------------------------------------------
D#-0-0-3-0-0-5-0-6-0-5-0-3-0-0-5---0-0-3-0-0-5-0-0-6-0-0-5-0-0-3--------
   x x   x x   x   x   x   x x     x x   x x   x x   x x   x x

D#----------------------------------------------------------------------
A#----------------------------------------------------------------------
F#----------------------------------------------------------------------
C#----------------------------------------------------------------------
G#----------------------------------------------------------------------
D#-0-0-3-0-0-5-0-6-0-5-0-3-0-0-5---0-0-3-0-0-5-0-0-6-0-0-5-0-0-3--------
   x x   x x   x   x   x   x x     x x   x x   x x   x x   x x


#2

D#----------------------------------------------------------------------
A#----------------------------------------------------------------------
F#----------------------------------------------------------------------
C#----------------------------------------------------------------------
G#-----------------5----------------------------------------------------
D#-0---7---6---7-----8.--7---7-6---0---7---6---7---8.------7.-----------



D#----------------------------------------------------------------------
A#----------------------------------------------------------------------
F#----------------------------------------------------------------------
C#----------------------------------------------------------------------
G#-----------------5----------------------------------------------------
D#-0---7---6---7-----8.--7---7-6---0---7---6---7---8-8.----7-7.---------


#3

D#----------------------------------------------------------------------
A#----------------------------------------------------------------------
F#-5--------------------------------------------------------------------
C#-5-------------------------------2-----------2-----------2------------
G#-3-------------------------------2-----------2-----------2------------
D#---------------------------------0---0-0-0-0-0---0-0-0-0-0---0-0------
                                       x x x x     x x x x     x x

D#----------------------------------------------------------------------
A#----------------------------------------------------------------------
F#-5--------------------------------------------------------------------
C#-5-------------------------------2-----------2-----------2------------
G#-3-------------------------------2-----------2-----------2------------
D#---------------------------------0---0-0-0-0-0---0-0-0-0-0---0-0------
                                       x x x x     x x x x     x x


#4

D#----------------------------------------------------------------------
A#----------------------------------------------------------------------
F#----------------------------------------------------------------------
C#----------------------------------------------------------------------
G#----------------------------------------------------------------------
D#-5-3-5-0---0-3-5---5h6---5---3---5-3-5-0---0-3-5---5h6---5------------


D#----------------------------------------------------------------------
A#----------------------------------------------------------------------
F#----------------------------------------------------------------------
C#----------------------------------------------------------------------
G#----------------------------------------------------------------------
D#-5-3-5-0---0-3-5---5h6---5---3---5-3-5-0---0-3-5---5h6---5------------




DOWNLOAD THIS TAB IN GUITAR PRO



  • click 'Free Download'
  • add your e-mail address
  • you will get an e-mail with your download links (in a few seconds)
  • download the Guitar Pro 6 tab + GP5 + PDF for free
  • and that's all ...


Guitar Pro: a complete workshop for guitarists at an affordable price