20141005

MY HEART WILL GO ON TAB (INSTRUMENTAL COVER BY IOXSILAN)

Ioxsilan plays a very nice instrumental cover of My Heart Will Go On (by Celine Dion).
He is using a legendary Fender Stratocaster with a tremolo bar.
Clean sound with a little reverb.
See the TAB under the video.


IOXSILAN MY HEART WILL GO ON TAB

PDF >>

Part 1

e--------<12>--------------------------<7>------------------------------
B-<12>---------------------------------------<7>------------------------
G-----------------------------------------------------------------------
D-----------------------------------------------------------------------
A-----------------------------------------------------------------------
E-----------------------------------------------------------------------


e-----------------------------------------------------------------------
B-5-------------4-/-5----------5---------7-h-9-----(10)(9)p7------------
G-----------------------------------------------------------------------
D-----------------------------------------------------------------------
A-----------------------------------------------------------------------
E-----------------------------------------------------------------------


e-----------------------------------------------------------------------
B-5-------------4-(5)-(4)-----------------------------------------------
G------------------------------4-/-6------------------------------------
D-----------------------------------------------------------------------
A-----------------------------------------------------------------------
E-----------------------------------------------------------------------



e-----------------------------------------------------------------------
B-5-------------4-/-5----------5---------7-h-9-----(10)(9)p7------------
G-----------------------------------------------------------------------
D-----------------------------------------------------------------------
A-----------------------------------------------------------------------
E-----------------------------------------------------------------------


e-----------------------------------------------------------------------
B-5-------------4-(5)-(4)-----------------------------------------------
G------------------------------4-/-6------------------------------------
D-----------------------------------------------------------------------
A-----------------------------------------------------------------------
E-----------------------------------------------------------------------


e-----------------------------------------------------------------------
B-----5--------------7-------------12-------10-9(10)(9)\7---------------
G-2/4-------------------------------------------------------------------
D-----------------------------------------------------------------------
A-----------------------------------------------------------------------
E-----------------------------------------------------------------------


e-----------------------------------------------------------------------
B-9-(10)-(9)--------p7--------------------------------------------------
G------------------------9---8-(9)(8)------------4-/-6------------------
D-----------------------------------------------------------------------
A-----------------------------------------------------------------------
E-----------------------------------------------------------------------


e-----------------------------------------------------------------------
B-----5--------------7-------------12-------10-9(10)(9)-\-7-------------
G-2/4-------------------------------------------------------------------
D-----------------------------------------------------------------------
A-----------------------------------------------------------------------
E-----------------------------------------------------------------------


e-----------------------------------------------------------------------
B-9-9(10)-(9)--------p7-------------------------------------------------
G-------------------------9---8-(9)(8)------------4-/-6-----------------
D-----------------------------------------------------------------------
A-----------------------------------------------------------------------
E-----------------------------------------------------------------------


e-----------------------------------------------------------------------
B-----------------------------------------------------------------------
G-4-/-6-\-4-----------------------4-------------------------------------
D---------------6-/-7-\-6-p-4-h-6---------------------------------------
A-----------------------------------------------------------------------
E-----------------------------------------------------------------------


Part 2

e-----------------------------------------------------------------------
B-5-------------4-/-5----------5---------7-h-9-----(10)(9)p7------------
G-----------------------------------------------------------------------
D-----------------------------------------------------------------------
A-----------------------------------------------------------------------
E-----------------------------------------------------------------------


e-----------------------------------------------------------------------
B-5-------------4-(5)-(4)-----------------------------------------------
G------------------------------4-/-6------------------------------------
D-----------------------------------------------------------------------
A-----------------------------------------------------------------------
E-----------------------------------------------------------------------


e-----------------------------------------------------------------------
B-5-------------4-/-5----------5---------7-h-9-----(10)(9)p7------------
G-----------------------------------------------------------------------
D-----------------------------------------------------------------------
A-----------------------------------------------------------------------
E-----------------------------------------------------------------------


e-----------------------------------------------------------------------
B-5-------------4-(5)-(4)-----------------------------------------------
G------------------------------4-/-6------------------------------------
D-----------------------------------------------------------------------
A-----------------------------------------------------------------------
E-----------------------------------------------------------------------


e-----------------------------------------------------------------------
B-----5--------------7-------------12-------10-9(10)(9)-\-7-------------
G-2/4-------------------------------------------------------------------
D-----------------------------------------------------------------------
A-----------------------------------------------------------------------
E-----------------------------------------------------------------------


e-----------------------------------------------------------------------
B-9-9(10)-(9)--------p7-------------------------------------------------
G-------------------------9---8-(9)(8)------------4-/-6-----------------
D-----------------------------------------------------------------------
A-----------------------------------------------------------------------
E-----------------------------------------------------------------------


e-----------------------------------------------------------------------
B-----5--------------7-------------12-------10-9(10)(9)-----------------
G-2/4---------------------------------------------------11--------------
D-----------------------------------------------------------------------
A-----------------------------------------------------------------------
E-----------------------------------------------------------------------


e-----------------------------------------------------------------------
B-9-(10)-(9)------------------------------------------------------------
G-------------------11---9---8-(9)(8)------------4-/-6------------------
D-----------------------------------------------------------------------
A-----------------------------------------------------------------------
E-----------------------------------------------------------------------


e-----------------------------------------------------------------------
B-----------------------------------------------------------------------
G-4-/-6-\-4---------------------4---------------------------------------
D---------------6-/-7-\-6-4-h-6-----------------------------------------
A-----------------------------------------------------------------------
E-----------------------------------------------------------------------


e-12-p-11---------------------------------------------------------------
B---------12---12-0h9h12~-----p10-p9-(10)-(9)---------------------------
G-----------------------------------------------------------------------
D-----------------------------------------------------------------------
A-----------------------------------------------------------------------
E-----------------------------------------------------------------------


e-----------------------------------------------------------------------
B-----------------------------------------------------------------------
G-11-p-9-h-11-(13)---------------p9-\-8-h-9-p-8-------------------------
D-------------------------------------------------11--------------------
A-----------------------------------------------------------------------
E-----------------------------------------------------------------------


e-----------------------------------------------------------------------
B-----------------------------------------------------------------------
G-8-(9)-(8)-(9)---11----------------------------------------------------
D-----------------------------------------------------------------------
A-----------------------------------------------------------------------
E-----------------------------------------------------------------------


Part 3

e---------------------------11------------------------------------------
B-9------------11--------------------14-13-(14)(13)-11------------------
G-----------------------------------------------------------------------
D-----------------------------------------------------------------------
A-----------------------------------------------------------------------
E-----------------------------------------------------------------------


e-----------------------------------------------------------------------
B-13-13-(14)(13)---------p11--------------------------------------------
G------------------------------13---12-(13)-(12)---------8-/-10---------
D-----------------------------------------------------------------------
A-----------------------------------------------------------------------
E-----------------------------------------------------------------------


e---------------------------11------------------------------------------
B-9------------11--------------------14-13-(14)(13)-11------------------
G-----------------------------------------------------------------------
D-----------------------------------------------------------------------
A-----------------------------------------------------------------------
E-----------------------------------------------------------------------


e-----------------------------------------------------------------------
B-13-13-(14)(13)---------p11--------------------------------------------
G------------------------------13---12-(13)-(12)---------8-/-10---------
D-----------------------------------------------------------------------
A-----------------------------------------------------------------------
E-----------------------------------------------------------------------


e-----------------------------------------------------------------------
B-----------------------------------------------------------------------
G-8-/-10-\-8---------------------------8--------------------------------
D----------------10-/-11-\-10-p-8-h-10----------------------------------
A-----------------------------------------------------------------------
E-----------------------------------------------------------------------


e---------8-------------------------------------------------------------
B-------9----------------------------8-h-9-p-8--------------------------
G----10----------------------------8------------------------------------
D-11------------------------8-h-10--------------------------------------
A-----------------------------------------------------------------------
E-----------------------------------------------------------------------


e---------8-------------------------------------------------------------
B-------9---------------------8-h-9-------------------------------------
G----10---------------------8---------8---------------------------------
D-11--------------------------------------------------------------------
A-----------------------------------------------------------------------
E-----------------------------------------------------------------------


e----------3------------------------------------------------------------
B-------4---------------------------------------------------------------
G----5------------------------------------------------------------------
D-6---------------------------------------------------------------------
A-----------------------------------------------------------------------
E-----------------------------------------------------------------------