20141010

SUPERCELL KIMI NO SHIRANAI MONOGATARI TAB (FINGERSTYLE GUITAR COVER BY THE FIREBLITZ)

Nice fingerstyle guitar cover played by The Fireblitz.
The song is called Kimi No Shiranai Monogatari by Supercell.
TAB under the video.



SUPERCELL KIMI NO SHIRANAI MONOGATARI TAB

PDF >>

Part 1

e-0-0-0-0---0-0-0-0-0-------------0-0-0-0-0---0-0-----------------------
B-2-------------------3-2---0-----0-------0-------5-5-3-2---------------
G-2-----------------------------2-1-------1-----------------4-----------
D-2---------------0-----------------------------------------------------
A-0---------------------------------------------------------------------
E---------------------------------0---------------2-------2---0---------


e---------------------------------0-------4-------5---4---5---7---------
B---------2-------0-------3-------0---------------7---------------------
G-2-------------------2-----------1---1-----------7---------------------
D-----2-----------0-----------0-----------------------------------------
A-0-----------0---------------------------------------------------------
E---------------------------------0-----------0---0---------0-----------


Part 2

e-5-------0---------------0-----------------------------------5---------
B-3-----------3---2-----------3---2-------5---3---2---3---5-------------
G-2---2-----2---2-----1-----1---1-----2-----------------2---------------
D-0-----0---------------------------------------------------------------
A-------------------------------------------------0---------0-----------
E-----------------0-----0---------2-----2---2---2-----------------------



e---------0-------------------------------------------------------------
B-2-----------3---2-------2-------------0-----0-2---0-2-3---------------
G-----2-----2---2-----1-------1.--2-1-2-----2---------------2-----------
D-0-----0-----------------------------------------------0---------------
A---------------------------------------2-------------------------------
E-----------------0-----0-1-------2-------------0-----------------------


e-----------------------------------------------------------------------
B-----------2-----3-----2---0-----2-----2-----3-2---2-2-2-2-2-2.--------
G-2-----2-----2---------2---2---2-2---2-----2-------2-2-2-2-2-2.--------
D-----2---------2-------------------------------------------------------
A-0-------0-------0---0---0---0---0-------0-------0---------------------
E-----------------------------------------------------------------------


Part 3

e-0-0-0-0-0-0-0-0-0-----------------------------------------------------
B-2-------2-----------3-2---0-----2-2-2-2-2-2-3-2---2h3-2---0-----------
G-2-------2---------------------2---------2-----------------------------
D---------------------------------0-------0-----------------------------
A-0-----------------------------------------------0---------------------
E-----------------0-------0-------------------------------0-------------


e---------5-------4-------5-------5---------5-4-2-------0---------------
B-----------------2---------------3-----3-------------0-----0-----------
G-2-------------------4-----------2---2-------------1-----------1-------
D---------------------------------0-------0-----------------------------
A-----------------2-----------0-----------------------------------------
E-2---2-------2-----------------------------------0---------------------


Part 4

e-0-0-0-0-0-0-0-0-0-----------------------------------------------------
B-2-------2-----------3-2---0-----2-2-2-2-2-2-3p2---2h3-2---0-----------
G-2-------2---------------------2---------------------------------------
D-----------------------------------------2---------------1-------------
A-0-----------------------------------------------2---------------------
E-----------------0-------1-------2-------------------------------------


e-----------------0-----------------------------------------------------
B---------2-------2-------2-------0-------0-------0---------------------
G-2---------------2---------------2---2-----------1-------2-------------
D-0---0-------0-------------------0-----------0-------------------------
A-----------------4---4-------4-----------------------------------------
E-------------------------------------------------0---0-------0---------


e-------------------------------------0---------------------------------
B-------------3---2-----2-0-------0-------------------------------------
G-2-----2-------------2-------1-----------------------------------------
D-----2-----2-----------------------------------------------------------
A-0-------0-------0-----------------------------------------------------
E-------------------------0---------------------------------------------


e-5---4---5-------------------0-----------------------------------------
B-2-----------5-------3---2---0-----------3-------2---------------------
G-2---------------------------1---2---2---------------2-----------------
D-----------------0-----------------------------------------------------
A---------------------------------------------0-----------0-------------
E-2---------------------------0-----------------------------------------


e-2---------------4-------0-------5-----------5-7-7/9-7-9/10-9----------
B-3---------------0-------0-------2------------------------------10-----
G-2---------------1-------1-------2-------------------------------------
D-0---0-0-0-0-0-0-------------------------------------------------------
A-----------------------------------------------------------------------
E-----------------0-0-0-0-0-0-0-0-2---2-2-2.------0---------------------


Part 5

e------------------10---9-------------7-----7-----7---9---7-------------
B-------10----10---10-----12---10-----9-----9-----9---7-----10---9------
G-----9-----9----9-9--------------9.--9---9-----9---9-9------------9.---
D-----------------------------------------------------------------------
A-0-------0--------0---------0--------7-------7-------7--------7--------
E-----------------------------------------------------------------------


e-5---------5-----5-------5---7.--9----------------10---10-10-9---7-----
B-7-----7-----7---7-------7-------10----12-12------7----------------10--
G-7---7---------7-7---7---7-------9--------9-------9--------------------
D-----------------------------------------------------------------------
A-5-------5-------5-----5-5-------0---0----0---0.--7----------7---------
E-----------------------------------------------------------------------


e------------------10---9-------------7-----7---------9-----------------
B-------10----10---10-----12---10-----9-----9-----9---9---12-10---9-----
G-----9-----9----9-9--------------9.--9---9-----9---9-10----------------
D------------------0---------0------------------------------------------
A-0-------0---------------------------7-------7-------------------------
E-----------------------------------------------------9---------9---9---


e-----------------------------------------------------------------------
B----------------10---9-------9---10-10---------------------------------
G-11--------11--------9---9---9-----------------------------------------
D-11---11---------------------------------------------------------------
A-9------------9------7-------------------------------------------------
E-----------------------------------------------------------------------


e-----------------------------------------------------------------------
B---------10-------10-------10-10/12.-----------------------------------
G-----9---9----9---9----9---9--9----------------------------------------
D-0---------------------------------------------------------------------
A-----------------------------------------------------------------------
E------------------9----------------------------------------------------


e-9---9-9-9-9-9---10---10-10-10-10-10-10--------------------------------
B-7---7-7-7-7-7---9----9--9--9--9--9--9---------------------------------
G-7---7-7-7-7-7---9----9--9--9--9--9--9---------------------------------
D-----------------------------------------------------------------------
A-----------------------------------------------------------------------
E-7-------------7-9-----------------------------------------------------


e-12-----12-----12------------------------------------------------------
B-10-----10-----10---10---9-10----12---\\\------------------------------
G-9----9------9------9--------------------------------------------------
D-0---------0-----------------------------------------------------------
A------------------------------11---------------------------------------
E--------------------0--------------------------------------------------


Part 6

e-5---------5-----------------------------------------------------------
B-2-----2---------3-----2---0-----2-----2-----3-2---2-2-2-2-2-2.--------
G-2---2---------2-2-------------2-2-----2---2-------2-2-2-2-2-2.--------
D-----------------------------------------------------------------------
A-0-------0-------0---0---0---0---0---0---0-------0-------0-------------
E-----------------------------------------------------------------------