20141102

AER ROOM TO BREATHE TAB

Aer Room to breathe is not a typical guitar song but starts with a brilliant lick that follows up throughout the whole song. 3 guitar lines can be heard: 1 with the main melody, a 2nd that only hits the background chord sometimes and a 3rd line later with melody 2.
See the TAB under the video.



AER ROOM TO BREATHE TAB

PDF >>

Main melody

e-----------------------------------------------------------------------
B------9h10p9--------------------------------------12.------------------
G-9h11----------11-9------------------9-11-11/13------------------------
D--------------------11-------------------------------------------------
A-----------------------------------------------------------------------
E-----------------------------------------------------------------------

(Background guitar)
e-----------------------------------------------------------------------
B----------(9)----------------------------------------------------------
G----------(9)----------------------------------------------------------
D----------(11)---------------------------------------------------------
A-----------------------------------------------------------------------
E-----------------------------------------------------------------------


e-----------------------------------------------------------------------
B-----------------------------------------------------------------------
G-9-11-11/13-------11---------------------------------------------------
D-----------------------------------------------------------------------
A-----------------------------------------------------------------------
E-----------------------------------------------------------------------



e-----------------------------------------------------------------------
B-------9h10p9----------------------------------------------------------
G--9h11----------11-9---------------------------------------------------
D---------------------11---------------9h11-----------------------------
A-----------------------------------------------------------------------
E-----------------------------------------------------------------------

(Background guitar)
e-----------------------------------------------------------------------
B-(9)-------------------------------------------------------------------
G-(9h11p9)--------------------------------------------------------------
D-(11)------------------------------------------------------------------
A-----------------------------------------------------------------------
E-----------------------------------------------------------------------


e------9----------------------------------------------------------------
B----9-----12---9-------------------------------------------------------
G--9--------------------------------------------------------------------
D-----------------------------------------------------------------------
A-----------------------------------------------------------------------
E-----------------------------------------------------------------------

(Background guitar)
e-----------------------------------------------------------------------
B-----------------------------------------------------------------------
G-----------------------------------------------------------------------
D-(9h11)----------------------------------------------------------------
A-----------------------------------------------------------------------
E-----------------------------------------------------------------------



Melody 2

e-----------------------------------------------------------------------
B-----------------------------------------------------------------------
G------------------------------9-11-11/13---11-9------------------------
D-11-11-11-11-11---11-11-11-11------------------------------------------
A-----------------------------------------------------------------------
E-----------------------------------------------------------------------


e-----------------------------------------------------------------------
B-----------------------------------------------------------------------
G-----------------------------------------------------------------------
D-11-11-11-11-11-11-11-11-11-11-----------------------------------------
A-------------------------------12-12-11-11-12-12-----------------------
E-----------------------------------------------------------------------


e-----------------------------------------------------------------------
B-----------------------------------------------------------------------
G-------------------------------9-11-11/13---11\9-----------------------
D-11-11-11-11-11-11-11-11-11-11-----------------------------------------
A-----------------------------------------------------------------------
E-----------------------------------------------------------------------


e-----------------------------------------------------------------------
B-----------------------------------------------------------------------
G-9-9-9-9-9-11-9-9------------------------------------------------------
D------------------11-11-11-11-11-9-------------------------------------
A-----------------------------------12p11-------------------------------
E-----------------------------------------------------------------------