20141115

CAT EYE AUTUMN LEAVES TAB (LEAD GUITAR PARTS)


Finally found the name of the song I discovered earlier in a great mix by Tekiu.
There are some great lead guitar parts at 3:22, at 4:13 and then later at 5:04.
See the TAB of these brilliant guitar solos under the video.



CAT EYE AUTUMN LEAVES TAB

PDF >>

Solo at 3:22

e---8-10-11.--10-8.-----------------------------------------------------
B-8------------------11.--13~-------------8-11.--9-8.--11.--------------
G---------------------------------------8-------------------8h10~-------
D------------------------------------10---------------------------------
A-----------------------------------------------------------------------
E-----------------------------------------------------------------------


e-----------------------------------------------------------------------
B-----------------------------------------------------------------------
G------8.--8------------------------------------------------------------
D-8h10-------10----------8.--8------------------------------------------
A-------------------8h10-------8~---------------------------------------
E-----------------------------------------------------------------------


e---8-10-11.--10-8.-----------------------------------------------------
B-8------------------11.--13~-------------8-11.--9-8.--11.--------------
G---------------------------------------8-------------------8h10~-------
D------------------------------------10---------------------------------
A-----------------------------------------------------------------------
E-----------------------------------------------------------------------



e-----------------------------------------------------------------------
B-----------------------------------------------------------------------
G-----8.--8-------------------------------------------------------------
D-----------10----------------------------------------------------------
A-------------------8---------------------------------------------------
E-----------------------------------------------------------------------


e---8-10-11.--10-11.--13.--13(15)~--------------------------------------
B-8-----------------------------------------8-11.--9-8.--11-------------
G-----------------------------------------8-------------------10~-------
D--------------------------------------10-------------------------------
A-----------------------------------------------------------------------
E-----------------------------------------------------------------------


e-----------------------------------------------------------------------
B-----------------------------------------------------------------------
G------8.--8------------------------------------------------------------
D-8-10-------10~--------------------------------------------------------
A--------------------10\8--p6-8~--------6-------------------------------
E-----------------------------------------6~----------------------------


Solo at 4:13

e-----------------------------------------------------------------------
B-----------------------------------------------------------------------
G-----------------------------------------------------------------------
D-8.--8.----10~------------8.--8.----10~--------------------------------
A-----------------------------------------------------------------------
E-----------------------------------------------------------------------


e-----------------------------------------------------------------------
B-----------------------------------------------------------------------
G-8.--8-----------------------------------------------------------------
D-------10~-------------------------------------------------------------
A--------------------8h10.--8h10-8~-------------------------------------
E-----------------------------------------------------------------------


e-----------------------------------------------------------------------
B------------------------------------------11---------------------------
G------8----8'------------------------8---------8~----------------------
D-8h10---10-----10.--------------8h10---10------------------------------
A-----------------------------------------------------------------------
E-----------------------------------------------------------------------


e-----------8------------------11---13---13-(15)~~~---------------------
B---------------11/13~--------------------------------------------------
G------8----------------------------------------------------------------
D-8h10---10-------------------------------------------------------------
A-----------------------------------------------------------------------
E-----------------------------------------------------------------------


e-(-18(20)---18(20)---)-------18p15----15-------------------------------
B-(-------------------)-------------18----16~---------------------------
G-(-------------------)-------------------------------------------------
D-(-------------------)-------------------------------------------------
A-(-------------------)-------------------------------------------------
E-(-------------------)-------------------------------------------------


e-----------------------------------------------------------------------
B-18p16----16-----------------------------------------------------------
G-------17----15~----17--------15--------12--------10-------8-----------
D-----------------------17~-------15~-------13~-------10~-----8-10------
A------------------------------------------------------------------8~---
E-----------------------------------------------------------------------


Solo at 5:04

e---8-10-11.--10-8.-----------------------------------------------------
B-8------------------11.--13~-------------8-11.--9-8---11.--------------
G---------------------------------------8-------------------8h10~-------
D-----------------------------------------------------------------------
A-----------------------------------------------------------------------
E-----------------------------------------------------------------------


e-----------------------------------------------------------------------
B-----------------------------------------------------------------------
G-----------------------------------------------------------------------
D-----------------8.--8-------------------------------------------------
A------------8h10-------8~----------------------------------------------
E-----------------------------------------------------------------------


e---8-10-11.--10-11.--13.--13(15)~--------------------------------------
B-8-----------------------------------------8-11.--9-8.--11.------------
G-----------------------------------------8-------------------8h10~-----
D--------------------------------------10-------------------------------
A-----------------------------------------------------------------------
E-----------------------------------------------------------------------


e-----------------------------------------------------------------------
B-----------------------------------------------------------------------
G---10------8-----------------------------------------------------------
D------10-----8---10------8---------------------------------------------
A--------------------10-----8~------------------------------------------
E-----------------------------------------------------------------------


Solo at 5:45

e-----------------------------------------------------------------------
B-----------------------------------------------------------------------
G-----------------------------------------------------------------------
D-8.--8.----10~------------8.--8.----10~--------------------------------
A-----------------------------------------------------------------------
E-----------------------------------------------------------------------


e-----------------------------------------------------------------------
B-----------------------------------------------------------------------
G-8.--8-----------------------------------------------------------------
D-------10~-------------------------------------------------------------
A--------------------8h10.--10-8~---------------------------------------
E-----------------------------------------------------------------------


e-(-18(20)---18(20)---)-------18p15----15-------------------------------
B-(-------------------)-------------18----16~---------------------------
G-(-------------------)-------------------------------------------------
D-(-------------------)-------------------------------------------------
A-(-------------------)-------------------------------------------------
E-(-------------------)-------------------------------------------------


e-----------------------------------------------------------------------
B-18p16----16-----------------------------------------------------------
G-------17----15~----17--------15--------12--------10-------8-----------
D-----------------------17~-------15~-------13~-------10~-----8-10------
A------------------------------------------------------------------8~---
E-----------------------------------------------------------------------


e---8-10-11.--10-8.-----------------------------------------------------
B-8------------------11.--13~-------------8-11.--9-8.--11.--------------
G---------------------------------------8-------------------8h10~-------
D------------------------------------10---------------------------------
A-----------------------------------------------------------------------
E-----------------------------------------------------------------------


e-----------------------------------------------------------------------
B-----------------------------------------------------------------------
G-----------------------------------------------------------------------
D-----------------8.--8-------------------------------------------------
A------------8h10-------8~----------------------------------------------
E-----------------------------------------------------------------------


e---8-10-11.--10-11.--13.--13(15)~--------------------------------------
B-8-----------------------------------------8-11.--9-8.--11.------------
G-----------------------------------------8-------------------8h10~-----
D--------------------------------------10-------------------------------
A-----------------------------------------------------------------------
E-----------------------------------------------------------------------


e-----------------------------------------------------------------------
B-----------------------------------------------------------------------
G---10------8-----------------------------------------------------------
D------10-----8---10------8---------------------------------------------
A--------------------10-----8~------------------------------------------
E-----------------------------------------------------------------------




The chords are the same throughout the solo

    Cm        Eb       G#maj7     Fm    Bb
e---3---------3---------x---------1-------------------------------------
B---4---------4---------4---------1-----3-------------------------------
G---5---------3---------5---------1-----3-------------------------------
D---5---------5---------5---------3-----3-------------------------------
A---3---------6---------x---------3-----1-------------------------------
E-----------------------4---------1-------------------------------------