20141109

SAILORS HORNPIPE TAB (FLATPICKING COVER BY SHANE BUMGARNER)

The original video title says: Flatpicking Sailors Hornpipe.
An old english tune played with two acoustic guitars.
See the TAB under the video.


SAILORS HORNPIPE TAB

PDF >>

Intro

e-----------------------------------------------------------------------
B-----------------------------------------------------------------------
G-----------------------------------------------------------------------
D-0-------0-------0-------0---------------------------------------------
A-3/5---5-5---5-5-5---5-5-5---------------------------------------------
E-----------------------------------------------------------------------


Guitar 1
      D                               E               A       
e-------------------------------2-0---0-----------0---------------------
B-3-2-3-------------------3-2-3-----3---------------3-2-0---------------
G-----------------2-0---2---------------------------------2-1-2---------
D---------0---0-4-----4-------------------2.--2-------------------------
A-----------------------------------------------------------------------
E-----------------------------------------------------------------------

      D       G       A       D       A               D
e-----------------------------------------------------------------------
B-0-2-3-2-0---0-------------------------------------------3.--3---------
G-----------2---2-0---0---------------------------0-------2.--2---------
D-------------------4---4-2-0-2-0-----------0-2-4---2-4---0.--0---------
A---------------------------------4-2-0-2-4-----------------------------
E-----------------------------------------------------------------------



      D                               E               A       
e-------------------------------2-0---0-----------0---------------------
B-3-2-3-------------------3-2-3-----3---------------3-2-0---------------
G-----------------2-0---2---------------------------------2-1-2---------
D---------0---0-4-----4-------------------2.--2-------------------------
A-----------------------------------------------------------------------
E-----------------------------------------------------------------------

      D       G       A       D       A               D
e-----------------------------------------------------------------------
B-0-2-3-2-0---0-------------------------------------------3.--3---------
G-----------2---2-0---0---------------------------0-------2.--2---------
D-------------------4---4-2-0-2-0-----------0-2-4---2-4---0.--0---------
A---------------------------------4-2-0-2-4-----------------------------
E-----------------------------------------------------------------------

      D                 G               E                 A       
e-----------------------------------------------------------------------
B-------------3---------------------------------5-----------------------
G-------2-4-2---4-2-4-2/4-----------------4-6-4---6-4-6-4/6-------------
D-2-3-4---------------------5.--5---4-5-6---------------------7.--7-----
A-----------------------------------------------------------------------
E-----------------------------------------------------------------------

      D       G       A       D       A               D
e-----------------------------------------------------------------------
B-0-2-3-2-0---0-------------------------------------------3.--3---------
G-----------2---2-0---0---------------------------0-------2.--2---------
D-------------------4---4-2-0-2-0-----------0-2-4---2-4---0.--0---------
A---------------------------------4-2-0-2-4-----------------------------
E-----------------------------------------------------------------------

      D                 G               E                 A       
e-----------------------------------------------------------------------
B-------------3---------------------------------5-----------------------
G-------2-4-2---4-2-4-2/4-----------------4-6-4---6-4-6-4/6-------------
D-2-3-4---------------------5.--5---4-5-6---------------------7.--7-----
A-----------------------------------------------------------------------
E-----------------------------------------------------------------------

      D       G       A       D       A               D
e-----------------------------------------------------------------------
B-0-2-3-2-0---0-------------------------------------------3.--3---------
G-----------2---2-0---0---------------------------0-------2.--2---------
D-------------------4---4-2-0-2-0-----------0-2-4---2-4---0.--0---------
A---------------------------------4-2-0-2-4-----------------------------
E-----------------------------------------------------------------------



Guitar 2

      D                               E               A       
e-----------------------------------------------------------------------
B-3-2-3-------------------3-2-3---5-4-5-----------5-3-2-0---------------
G-----------------2-0---2---------------------------------2-1-2---------
D---------0---0-------4-------------------2---2-------------------------
A-----------------------------------------------------------------------
E-----------------------------------------------------------------------

      D       G       A       D       A               D
e-----------------------------------------------------------------------
B-0-2-3-2-0---0---------------------------------------------------------
G-----------2---2-0---0---------------------------0-2-------------------
D-------------------4---4-2-0-2-0-----------0-2-4-----4---0---0---------
A---------------------------------4-2-0-2-4-----------------------------
E-----------------------------------------------------------------------

      D                               E               A       
e-----------------------------------------------------------------------
B-3-2-3-------------------3-2-3---5-4-5-----------5-3-2-0---------------
G-----------------2-0---2---------------------------------2-1-2---------
D---------0---0-------4-------------------2---2-------------------------
A-----------------------------------------------------------------------
E-----------------------------------------------------------------------

      D       G       A       D       A               D
e-----------------------------------------------------------------------
B-0-2-3-2-0---0---------------------------------------------------------
G-----------2---2-0---0---------------------------0-2-------------------
D-------------------4---4-2-0-2-0-----------0-2-4-----4---0---0---------
A---------------------------------4-2-0-2-4-----------------------------
E-----------------------------------------------------------------------

      D               G               E               A       
e-----------------------------------------------------------------------
B-------------3-------------------------------5-------------------------
G---------2-----2---2-3/4-----------------4-----4---4-5/6---------------
D-0-2-3-4---4-----4-------5.--5---3-4-5-6---6-----6-------7.--7---------
A-----------------------------------------------------------------------
E-----------------------------------------------------------------------

      D       G       A       D       A               D
e-----------------------------------------------------------------------
B-0-2-3-2-0---0---------------------------------------------------------
G-----------2---2-0---0---------------------------0-2-------------------
D-------------------4---4-2-0-2-0-----------0-2-4-----4---0---0---------
A---------------------------------4-2-0-2-4-----------------------------
E-----------------------------------------------------------------------

      D               G               E               A       
e-----------------------------------------------------------------------
B-------------3-------------------------------5-------------------------
G---------2-----2---2-3/4-----------------4-----4---4-5/6---------------
D-0-2-3-4---4-----4-------5.--5---3-4-5-6---6-----6-------7.--7---------
A-----------------------------------------------------------------------
E-----------------------------------------------------------------------

      D       G       A       D       A               D
e-----------------------------------------------------------------------
B-0-2-3-2-0---0---------------------------------------------------------
G-----------2---2-0---0---------------------------0-2-------------------
D-------------------4---4-2-0-2-0-----------0-2-4-----4---0---0---------
A---------------------------------4-2-0-2-4-----------------------------
E-----------------------------------------------------------------------


Guitar 1 again and Guitar 2 again