20141130

THE ROLLING STONES DEAD FLOWERS TAB (MAIN SOLO PART)

Brilliant Keith Richards guitar solo on the '71 album in the middle of Dead Flowers.
There are some cool lead parts throughout the whole song, the main solo is at 2:35.
The great thing is that Keith Richards only uses one pentatonic scale.
See the solo TAB under the video.


THE ROLLING STONES DEAD FLOWERS SOLO TAB

PDF >>

2:35
        D                       A             G                  D
e------------------7----------------------------------------------------
B--------------------10-----------------------10------------------------
G-----7-9(11)-----------(11)(9)-----------7------(11)(9)p7-9-7---7~-----
D-7h9---------------------------------7h9---9------------------9--------
A-----------------------------------------------------------------------
E-----------------------------------------------------------------------

                                      A
e---------10------------------------------------------------------------
B------------10(12)---10-8-10-------------------------------------------
G-----7-----------------------9(11)---7---7-7~--------------------------
D-7h9---9-------------------------------9-------------------------------
A-----------------------------------------------------------------------
E-----------------------------------------------------------------------

        G                      D
e-----------------------------------------------------------------------
B-------10--------------------------------------------------------------
G-----7----(11)(9)p7-9-7---7~-------------------------------------------
D-7h9--------------------9----------------------------------------------
A-----------------------------------------------------------------------
E-----------------------------------------------------------------------


                                                A
e-----------------------------------------------------------------------
B-----------------10---------10---------10------------------------------
G-----7---9(11)------9(11)------9(11)------(11)(9)----------------------
D-7h9---9---------------------------------------------------------------
A-----------------------------------------------------------------------
E-----------------------------------------------------------------------

          G                           D
e---------10------------------------------------------------------------
B------------10(12)---10-8-10-------------------------------------------
G-----7-----------------------9(11)---7---7~----------------------------
D-7h9---9---------------------------------------------------------------
A-----------------------------------------------------------------------
E-----------------------------------------------------------------------

                                      A
e-10--------------------------------------------------------------------
B------10(12)---10-8-10-------------------------------------------------
G-----------------------9(11)(9)-7---9(11)-(9)p7---7--------------------
D----------------------------------9------------9-----------------------
A-----------------------------------------------------------------------
E-----------------------------------------------------------------------

         G                       D                    A ...
e-----------------------------------------------------------------------
B---------------10------------------------------------------------------
G-----7-9(11)------(11)(9)p7--------------------------------------------
D-7h9------------------------9-7-------------------7.-------------------
A--------------------------------9\7p5-------5-7/9----------------------
E--------------------------------------7-5-7----------------------------