20141124

TIESTO ADAGIO FOR STRINGS TAB (FINGERSTYLE COVER BY ROBERT HEDENBORG)

The original Adagio For Strings melody was written by Samuel Barber.
There is a great fingerstyle guitar arrangement played by Robert Hedenborg.
See the TAB under the video.



TIESTO ADAGIO FOR STRINGS TAB

PDF >>

Part 1

e-5-------5---4---5---7---4---5---7---5---7---8-------------------------
B-6-------5---5---5---5---5---5---5---5---5-----------------------------
G-----------------------------------------------------------------------
D-0---------------------------------------------------------------------
A-----------------------------------------------------------------------
E---------0---------------0---------------------------------------------


e------7---8----7----8----10--------------------------------------------
B-10-------10---10---10----------12-----------10------------------------
G-----------------------------------------------------------------------
D-----------------------------------------------------------------------
A-8--------8---------8-----------10-------------------------------------
E-----------------------------------------------------------------------


e-----------------------------------------------------------------------
B---------------------0-----------0-------0---1-------------------------
G-2-------2---1---2-------1---2-------2---------------------------------
D-----------------------------------------------------------------------
A-5---5-----------------------------------------------------------------
E---------0-------0---0---0---0---0---0---0---0-------------------------



e-----------------------------------------------------------------------
B-----0---0h1---1p0---0h1---3---0---------------------------------------
G-2---------------------------------------------2-----------------------
D-----------------------------------------------------------------------
A-----------------------------------------------5---5---5---5-----------
E-1---1---1-----1-----1-----1---3---3---3---3---------------------------


Part 2

e-----------------------------------------------------------------------
B-----------------------------------------------------------------------
G---2---2---2---2---2---2---2---2---2---2---2---2---2---2---2---2-------
D-----0-------0-------0-------0-------0-------0-------0-------0---------
A-5-------5-------5-------5-------5-------5-------5-------5-------------
E-----------------------------------------------------------------------


e-----------------------------------------------------------------------
B-----------------------------------------------------------------------
G---2---2---2---2---2---2---2---2---2---2---2---2---2---2---2---2-------
D-----0-------0-------0-------0-------0-------0-------0-------0---------
A-5-------5-------5-------5-------5-------5-------5-------5-------------
E-----------------------------------------------------------------------


e-----------------------------------------------------------------------
B-----------------------------------------------------------------------
G---2---2---2---2---2---2---2---2---2---2---2---2---2---2---2---2-------
D-----0-------0-------0-------0-------0-------0-------0-------0---------
A-5-------5-------5-------5-------5-------5-------5-------5-------------
E-----------------------------------------------------------------------


e-----------------------------------------------------------------------
B-----------------------------------------------------------------------
G---2---2---2---2---2---2---2---2---------------------------------------
D-----0-------0-------0-------0-----------------------------------------
A-5-------5-------5-------5---------------------------------------------
E-----------------------------------------------------------------------


e-----------------------------------------------------------------------
B---------------------------------------------------0---0---0---0-------
G---2---2---2---2---1---1---1---1---2---2---2---2-----------------------
D-----2-------2-------2-------2-------2-------2-------2-------2---------
A-----------------------------------------------------------------------
E-0-------0-------0-------0-------0-------0-------0-------0-------------


e-----------------------------------------------------------------------
B-----------------------------------0---0---0---0-----------------------
G---1---1---1---1---2---2---2---2-------------------2---2---2---2-------
D-----2-------2-------2-------2-------2-------2-------2-------2---------
A-----------------------------------------------------------------------
E-0-------0-------0-------0-------0-------0-------0-------0-------------


e-----------------------------------------------------------------------
B---0---0---0---0---1---1---1---1---------------------------------------
G-----------------------------------------------------------------------
D-----2-------2-------2-------2-----------------------------------------
A-----------------------------------------------------------------------
E-0-------0-------0-------0---------------------------------------------


e-----------------------------------------------------------------------
B-------------------0---0---0---0---1---1---1---1---0---0---0---0-------
G---2---2---2---2-------------------------------------------------------
D-----3-------3-------3-------3-------3-------3-------3-------3---------
A-----------------------------------------------------------------------
E-1-------1-------1-------1-------1-------1-------1-------1-------------


e-----------------------------------------------------------------------
B---1---1---1---1---3---3---3---3---0---0---0---0---0---0---0---0-------
G-----------------------------------------------------------------------
D-----3-------3-------3-------3-------0-------0-------0-------0---------
A-----------------------------------------------------------------------
E-1-------1-------1-------1-------3-------3-------3-------3-------------


e-----------------------------------------------------------------------
B-----------------------------------------------------------------------
G-----------------------------------------------------------------------
D-----------------------------------------------------------------------
A-----------------------------------------------------------------------
E-3---------------3'----------------------------------------------------


Part 3

e-----------------------------------------------------------------------
B-----------------------------------------------------------------------
G---2---2---2---2---2---2---2---2---2---2---2---2---2---2---2---2-------
D-----0-------0-------0-------0-------0-------0-------0-------0---------
A-5-------5-------5-------5-------5-------5-------5-------5-------------
E-----------------------------------------------------------------------


e-----------------------------------------------------------------------
B-----------------------------------------------------------------------
G---2---2---2---2---2---2---2---2---2---2---2---2---2---2---2---2-------
D-----0-------0-------0-------0-------0-------0-------0-------0---------
A-5-------5-------5-------5-------5-------5-------5-------5-------------
E-----------------------------------------------------------------------


e-----------------------------------------------------------------------
B---------------------------------------------------0---0---0---0-------
G---2---2---2---2---1---1---1---1---2---2---2---2-----------------------
D-----2-------2-------2-------2-------2-------2-------2-------2---------
A-----------------------------------------------------------------------
E-0-------0-------0-------0-------0-------0-------0-------0-------------


e-----------------------------------------------------------------------
B-----------------------------------0---0---0---0-----------------------
G---1---1---1---1---2---2---2---2-------------------2---2---2---2-------
D-----2-------2-------2-------2-------2-------2-------2-------2---------
A-----------------------------------------------------------------------
E-0-------0-------0-------0-------0-------0-------0-------0-------------


e-----------------------------------------------------------------------
B---0---0---0---0---1---1---1---1---------------------------------------
G-----------------------------------------------------------------------
D-----2-------2-------2-------2-----------------------------------------
A-----------------------------------------------------------------------
E-0-------0-------0-------0---------------------------------------------


e-----------------------------------------------------------------------
B-------------------0---0---0---0---1---1---1---1---0---0---0---0-------
G---2---2---2---2-------------------------------------------------------
D-----3-------3-------3-------3-------3-------3-------3-------3---------
A-----------------------------------------------------------------------
E-1-------1-------1-------1-------1-------1-------1-------1-------------


e-----------------------------------------------------------------------
B---1---1---1---1---3---3---3---3---0---0---0---0---0---0---0---0-------
G-----------------------------------------------------------------------
D-----3-------3-------3-------3-------0-------0-------0-------0---------
A-----------------------------------------------------------------------
E-1-------1-------1-------1-------3-------3-------3-------3-------------


e-----------------------------------------------------------------------
B-----------------------------------------------------------------------
G-----------------------------------------------------------------------
D-----------------------------------------------------------------------
A-----------------------------------------------------------------------
E-3---------------3'----------------------------------------------------


Part 4

e-----------------------------------------------------------------------
B-----------------------------------------------------------------------
G---2---2---2---2---2---2---2---2---2---2---2---2---2---2---2---2-------
D-----0-------0-------0-------0-------0-------0-------0-------0---------
A-5-------5-------5-------5-------5-------5-------5-------5-------------
E-----------------------------------------------------------------------


e-----------------------------------------------------------------------
B---------------------------------------------------0---0---0---0-------
G---2---2---2---2---1---1---1---1---2---2---2---2-----------------------
D-----2-------2-------2-------2-------2-------2-------2-------2---------
A-----------------------------------------------------------------------
E-0-------0-------0-------0-------0-------0-------0-------0-------------


e-----------------------------------------------------------------------
B-----------------------------------0---0---0---0-----------------------
G---1---1---1---1---2---2---2---2-------------------2---2---2---2-------
D-----2-------2-------2-------2-------2-------2-------2-------2---------
A-----------------------------------------------------------------------
E-0-------0-------0-------0-------0-------0-------0-------0-------------


e-----------------------------------------------------------------------
B---0---0---0---0---1---1---1---1---------------------------------------
G-----------------------------------------------------------------------
D-----2-------2-------2-------2-----------------------------------------
A-----------------------------------------------------------------------
E-0-------0-------0-------0---------------------------------------------


e-----------------------------------------------------------------------
B-------------------0---0---0---0---1---1---1---1---0---0---0---0-------
G---2---2---2---2-------------------------------------------------------
D-----3-------3-------3-------3-------3-------3-------3-------3---------
A-----------------------------------------------------------------------
E-1-------1-------1-------1-------1-------1-------1-------1-------------


e-----------------------------------------------------------------------
B---1---1---1---1---3---3---3---3---0---0---0---0---0---0---0---0-------
G-----------------------------------------------------------------------
D-----3-------3-------3-------3-------0-------0-------0-------0---------
A-----------------------------------------------------------------------
E-1-------1-------1-------1-------3-------3-------3-------3-------------


e-----------------------------------------------------------------------
B-----------------------------------------------------------------------
G-----------------------------------------------------------------------
D-----------------------------------------------------------------------
A-----------------------------------------------------------------------
E-3---------------3'----------------------------------------------------


Part 5

e-----------------------------------------------------------------------
B-----------------------------------------------------------------------
G-------2--------2--------2--------2------------------------------------
D----0--------0--------0--------0---------------------------------------
A-5--------5--------5--------5--------5---------------------------------
E-----------------------------------------------------------------------


e-----------------------------------------------------------------------
B-------------0-----------0-------0---0h1-------------------------------
G-2\1---1h2-------1---2-------2-----------------------------------------
D-----------------------------------------------------------------------
A-----------------------------------------------------------------------
E-0---------------0-----------------------------------------------------


e-----------------------------------------------------------------------
B-----0---0h1---1p0---0h1---1h3---0--------0----------------------------
G-2-------------------------------------0-----------0h2---2p0-----------
D------------------------------------0-----------0----------------------
A-----------------------------------------------------------------------
E-1-------------------1-----------3-----------3-------------------------


e---------3-------0-----------------------------------------------------
B-----------------------------------------------------------------------
G-2-------2-------2-----------------------------------------------------
D-----------------------------------------------------------------------
A-0---------------------------------------------------------------------
E-----------------------------------------------------------------------