20141130

WYCLEF JEAN ERIC CLAPTON WONDERFUL TONIGHT TAB (SOLOS PLAYED LIVE IN CARNEGIE HALL)

Great version of Wonderful Tonight played by Wyclef Jean and Eric Clapton live at Carnegie Hall. Nice and easy guitar playing with the special Fender Stratocaster.
See all the lead guitar parts TAB under the video.


WYCLEF JEAN ERIC CLAPTON WONDERFUL TONIGHT TAB

PDF >>

Intro solo (0:27)

e-----------------------------------------------------------------------
B-----10(12)-(10)(12)(10)p8.--10~-----------------------8h10p8~---------
G-7.------------------------------------------------7-9-----------------
D-----------------------------------------------------------------------
A-----------------------------------------------------------------------
E-----------------------------------------------------------------------


e-----------------------------------------------------------------------
B-----8.--10(12).--(12)(10)p8-----8~------10-8---8~--10.--8~----\-------
G-7-9-------------------------9.------9.-------9------------------------
D-----------------------------------------------------------------------
A-----------------------------------------------------------------------
E-----------------------------------------------------------------------


e-----------------------------------------------------------------------
B-----10(12)-(10)(12)(10)p8---10~---------------------------------------
G-7--------------------------------------7.-----------------------------
D-----------------------------------------------------------------------
A-----------------------------------------------------------------------
E-----------------------------------------------------------------------



e-------10.-------------------------------------------------------------
B-10/12------12\10----p8.--8~-------------------------------------------
G-----------------------------------------------------------------------
D-----------------------------------------------------------------------
A-----------------------------------------------------------------------
E-----------------------------------------------------------------------


e-----------------------------------------------------------------------
B-----8---10~------10/12~------13.------15/17--------15~------\---------
G-7h9-------------------------------------------------------------------
D-----------------------------------------------------------------------
A-----------------------------------------------------------------------
E-----------------------------------------------------------------------


After chorus (1:25)

e-----------------------------------------------------------------------
B-----10(12)---------(10)p8-10~-----------------------------------------
G-7---------------------------------------------------------------------
D-----------------------------------------------------------------------
A-----------------------------------------------------------------------
E-----------------------------------------------------------------------


e-----------------------------------------------------------------------
B-8-10-10(12)---10(12)-----(10)--p8.--8~--------------------------------
G-----------------------------------------------------------------------
D-----------------------------------------------------------------------
A-----------------------------------------------------------------------
E-----------------------------------------------------------------------


e-----------------------------------------------------------------------
B-----8.--8h10~------10/12~------13.------13/17-15~-------\-------------
G-7-9-------------------------------------------------------------------
D-----------------------------------------------------------------------
A-----------------------------------------------------------------------
E-----------------------------------------------------------------------


Solo (2:35)

e-----------------------------------------------------------------------
B-----------------------------------------------------------------------
G--------------------------12-14-14(16)---14~---------------------------
D--------------------12-14----------------------------------------------
A-\\\\---------/14------------------------------------------------------
E-----------------------------------------------------------------------


e-----------------------------------------------------------------------
B-------12-13-15------13h15p13-12---------------------------------------
G-12-14-----------------------------14~--12~--12~---12-\----------------
D-----------------------------------------------------------------------
A-----------------------------------------------------------------------
E-----------------------------------------------------------------------


e-------------15.--17(19)---17~-------15.--14.--------------------------
B-------15-17-----------------------------------17.--15.-----15-15~-----
G-/16-----------------------------------------------------16------------
D-----------------------------------------------------------------------
A-----------------------------------------------------------------------
E-----------------------------------------------------------------------


e-----------------------------------------------------------------------
B-15h17(20)-------17.--15.-------13\12----------------------------------
G--------------------------------------14---12---14~--14~---------------
D-----------------------------------------------------------------------
A-----------------------------------------------------------------------
E-----------------------------------------------------------------------


e-----------------------------------------------------------------------
B-------12h13p12----12--------------------------------------------------
G-12h14----------14----14p12----12~--12~--------------------------------
D----------------------------14-----------------------------------------
A-----------------------------------------------------------------------
E-----------------------------------------------------------------------


e-----------------------------------------------------------------------
B-----------------------------------------------------------------------
G-------------12~------14.------14(16)------14.------12~-----\----------
D-------12h14-----------------------------------------------------------
A-12h14-----------------------------------------------------------------
E-----------------------------------------------------------------------


Solo at the end (3:46)

e-----------------------------------------------------------------------
B-----10(12)----------(10)p8-10~----------10(12)---10(12)(10)p8---------
G-7-----------------------------------7-7-------------------------9~----
D-----------------------------------------------------------------------
A-----------------------------------------------------------------------
E-----------------------------------------------------------------------


e--------------------------------------10/12.-----10.-------------------
B-----10(12)---10(12)(10)p8.--10~-------------------------12\10---8~----
G-7---------------------------------------------------------------------
D-----------------------------------------------------------------------
A-----------------------------------------------------------------------
E-----------------------------------------------------------------------


e-----------------------------------------------------------------------
B-----10(12)-(10)(12)(10)p8---10~-----------10(12)------(10)p8----------
G-7-7-----------------------------------7----------------------9~-------
D-----------------------------------------------------------------------
A-----------------------------------------------------------------------
E-----------------------------------------------------------------------


e-----------------------------------------------------------------------
B-----10(12)---10(12)(10)-8---10~-------10/12~-------13.-------15/17~---
G-7---------------------------------------------------------------------
D-----------------------------------------------------------------------
A-----------------------------------------------------------------------
E-----------------------------------------------------------------------


e--------------15-17-19.-17-15----15h17p15----15------------------------
B--------15-17-----------------17----------17----17-15------------------
G------------------------------------------------------16\14-12--14-----
D--------------------------------------------------------------14--14---
A-----------------------------------------------------------------------
E-----------------------------------------------------------------------


e-----------------------------------------------------------------------
B-----------------------------------------------------------------------
G-12----------12~-------------------------------------------------------
D----14-12------------14p12---------------------------------------------
A----------14---------------14\12-10~----\\\----------------------------
E-----------------------------------------------------------------------