20141221

KING CHARLES IVORY ROAD TAB (ROOFTOP SESSIONS)

King Charles plays Ivory Road on the Rooftop Sessions.
Special guy with a special guitar!
He tuned down the low E string to a C and put the Capo on the 7th fret.
See the intro part (0:00 - 0:43) TAB under the video.



KING CHARLES IVORY ROAD TAB

PDF >>

Capo on 7th !!! (CADGBe tunig)

e-----------------------------------------------------------------------
B-----------------------------------------------------------------------
G-------------5-----------------------2h5p2-----------------------------
D-----2---5-------5---2-------2---5---------5---2-----------------------
A-3-----------------------3---------------------------------------------
C-----------------------------------------------------------------------


e-----------------------------------------------------------------------
B-----------------------------------------------------------------------
G---------------7-----------------------7-------------------------------
D-------6-------------6---------6-----------6---------------------------
A-3/7-------7-----------7---7-------7-----------7-----------------------
C-----------------------------------------------------------------------


e-----------------------------------------------------------------------
B-----------------------------------------------------------------------
G---------------9.--7-------------------9---10--------------------------
D-------7---------------7-------7---------------------------------------
A-7/8-------8---------------8-------8------------8-\--------------------
C-----------------------------------------------------------------------



e-----------------------------------------------------------------------
B-----------------------------------------------------------------------
G-------------5-----------------------2h5p2-----------------------------
D-----2---5-------5---2-------2---5---------5---2-----------------------
A-3-----------------------3---------------------------------------------
C-----------------------------------------------------------------------


e-----------------------------------------------------------------------
B-----------------------------------------------------------------------
G---------2---5.--2-------------------5---4---2---------------5---------
D-----3---------------3-------3-----------------------2---5---5---------
A-5-----------------------2-------2---------------3-----------3---------
C-------------------------------------------------------------0---------


Verse

e-----------------------------------------------------------------------
B-----------------------------------------------------------------------
G-------------5-----------------------2h5p2-----------------------------
D-----2---5-------5---2-------2---5---------5---2-----------------------
A-3-----------------------3---------------------------------------------
C-----------------------------------------------------------------------


e-----------------------------------------------------------------------
B-----------------------------------------------------------------------
G---------------7---7-------------------7-------------------------------
D-------6-----------------------6-----------6---------------------------
A-3/7-------7-----------7---7-------7-----------7-----------------------
C-----------------------------------------------------------------------


e-----------------------------------------------------------------------
B-----------------------------------------------------------------------
G---------------9---7-------------------9---10--------------------------
D-------7---------------7-------7---------------------------------------
A-7/8-------8---------------8-------8------------8-\--------------------
C-----------------------------------------------------------------------


e-----------------------------------------------------------------------
B-----------------------------------------------------------------------
G-------------5---------------2-------2---------------------------------
D-----2---5-------5---2-----------5-------5-----------------------------
A-3-----------------------3-------------------3-------------------------
C-----------------------------------------------------------------------