20141214

THE BEAUMONT RAG TAB (FLATPICKING COVER BY SHANE BUMGARNER)

The original video title says: Flatpicking The Beaumont Rag.
Great song played with two acoustic guitars.
See the TAB under the video.


THE BEAUMONT RAG FLATPICKING TAB

PDF >>

Intro

e-----------------------------0-----------------------------------------
B---------------------1---3---------------------------------------------
G-----------------------------------------------------------------------
D-----------------------------------------------------------------------
A-2h3-3-3-3---3-3-3-----------------------------------------------------
E-----------------------------------------------------------------------


Part 1

  G                               C
e-1-3-1-0---0-----------------------0---0-------------------------------
B---------3---3-1---0---0---------4---4---1-----1-----------------------
G-----------------3---3---0---0-2-----------2-0---2-0---------0---------
D-----------------------------------------------------2-0---------------
A---------------------------------------------------------3-------------
E-----------------------------------------------------------------------

  G                               C
e-----------------------------------------------------------------------
B-----------------------------------------------------------------------
G-------0---2-0---------0---2-0---------------0-----------0---0---------
D-0-2-3-----------0-2-3-----------------0-2-3-----------0---------------
A---------------------------------3-2-3-----------3-2-3-----------------
E-----------------------------------------------------------------------



  G                               C
e-----0---1-3-1-0-------------------0---0-------------------------------
B-----------------3-0-3-0---------4---4---1-----1-------------1---------
G-------------------------0---0-------------2-0---2-0---------0---------
D-0---------------------------------------------------2-0-----2---------
A---------------------------------------------------------3-------------
E-----------------------------------------------------------------------

  F               C       A7      D7      G       C
e-------------------0---------------------------------------------------
B-----------0-1-3/4---1---1-----1-0-------------------3-----------------
G-------0-2-------------0-----0-----2-0---------------0-----------------
D-3-2-3---------------------------------3-2-0---------2-----------------
A---------------------------------------------3-2-3---------------------
E-----------------------------------------------------------------------

      G                               C
e-----------------------------------------------------------------------
B-----------------------------------------------------------------------
G---------0-----2-----0-----2-----0-------0-----2-----0-----2-----0-----
D-------0-----0-----0-----0-----0-------2-----2-----2-----2-----2-------
A-0-1-2-----2-----2-----2-----2-------3-----3-----3-----3-----3---------
E-----------------------------------------------------------------------

  G                               C
e-----------------------------------------------------------------------
B---------------------------------1-----1-------------------------------
G-----0-----2-----0-----2-----0---0-2-0---2-0-----0-2-0-----------------
D---0-----0-----0-----0-----0-----------------2-3---------0-------------
A-2-----2-----2-----2-----2-----------------------------------0-1-------
E-----------------------------------------------------------3-----------

  G                               C
e-----------------------------------------------------------------------
B-----------------------------------------------------------------------
G-----0-----2-----0-----2-----0-------0-----2-----3-----2-----0---------
D---------0-----0-----0-----0-------2-----2-----2-----2-----2-----------
A-2-----2-----2-----2-----2-------3-----3-----3-----3-----3-------------
E-----------------------------------------------------------------------

  F               C       A7      D7      G       C
e-------------------0---------------------------------------------------
B-----------0-1-3/4---1---1-----1-0---------------------------0---------
G-------0-2-------------0-----0-----2-0---------------0---2-------------
D-3-2-3---------------------------------3-2-0---------------------------
A---------------------------------------------3-2-3---------------------
E-----------------------------------------------------------------------


Part 2

  G                               C
e-1-3-1-0---0-----------------------0---0-------------------------------
B---------3---3-1---0---0---------4---4---1-----1-----------------------
G-----------------3---3---0-2-0-------------2-0---2-0-----0-2-0---------
D-----------------------------------------------------2-3-------2-------
A-----------------------------------------------------------------------
E-----------------------------------------------------------------------

  G                               C
e-----------------------------------------------------------------------
B-----------------------------------------------------------------------
G-------0---2-0---0-2-0-2-0---2---0-2-0---------------------------------
D-0-2-3---------------------------------2-0-2-3-2-0-2-0-------0---------
A-------------------------------------------------------3-2-------------
E-----------------------------------------------------------------------

  G                               C
e-----------------------------------------------------------------------
B-------------------------------------------------5---5-8-5-----5-------
G-----0---2---0-----------5---5-7-5-------5---5-7---7-------7-8---------
D-2-------------2-0-2-2/7---7-------7-5-7---7---------------------------
A-----------------------------------------------------------------------
E-----------------------------------------------------------------------

  F               C               G               C
e-----------------------------------------------------------------------
B-----------------------------------------------------------------------
G-8-7-5-------5---5-7-5-----5-------------------------------------------
D-------7-5-7---7-------6-7---7-6-5-----------5---5---7---5-\-----------
A-----------------------------------7-6-5-6-7---7-----------------------
E-----------------------------------------------------------------------

      G                               C
e-----------------------------------------------------------------------
B-----------------------------------------------------------------------
G---------0-----2-----0-----2-----0-------0-----2-----0-----2-----0-----
D-------0-----0-----0-----0-----0-------2-----2-----2-----2-----2-------
A-0-1-2-----2-----2-----2-----2-------3-----3-----3-----3-----3---------
E-----------------------------------------------------------------------

  G                               C
e-----------------------------------------------------------------------
B---------------------------------1-----1-------------------------------
G-----0-----2-----0-----2-----0---0-2-0---2-0-3-2-0---------------------
D---------0-----0-----0-----0-----------------------2-1-0---------------
A-1/2---2-----2-----2-----2-------------------------------3---0-1-------
E-----------------------------------------------------------3-----------

  G                               C
e-----------------------------------------------------------------------
B-----------------------------------------------------------------------
G-----0-----2-----0-----2-----0-------0-----2-----3-----2-----0---------
D---0-----0-----0-----0-----0-------2-----2-----2-----2-----2-----------
A-2-----2-----2-----2-----2-------3-----3-----3-----3-----3-------------
E-----------------------------------------------------------------------

  F               C               G               C
e-------------------0---------------------------------------------------
B-------0-1---3-0-4---1-----------0-------------------------------------
G---0-2-----------------2-0---2-0---2-0---------------------------------
D-3-------------------------------------3-2---0-2-----------------------
A-------------------------------------------3-----3---------------------
E-----------------------------------------------------------------------


Part 3

e---------0-------------------------------------------------------------
B-1---3-----------------------------------------------------------------
G-----------------------------------------------------------------------
D-----------------------------------------------------------------------
A-----------------------------------------------------------------------
E-----------------------------------------------------------------------

  G                               C
e-1-3-1-0---0-----------------------0---0-------------------------------
B---------3---3-1---0---0-----4-------4---1-----1-----------------------
G-----------------3---3---0-----------------2-0---2-0---------0---------
D-----------------------------------------------------2-0---------------
A---------------------------------------------------------3-------------
E-----------------------------------------------------------------------

  G                               C
e-----------------------------------------------------------------------
B-----------------------------------------------------------------------
G-------0---2-0---------0---2-0-----------0-2-0-----------0-------------
D-0-2-3-----------0-2-3-------------0-2-3-----------0-2-3-----0---------
A---------------------------------3---------------3---------------------
E-----------------------------------------------------------------------

  G                               C
e-1-3-1-0---0---------------------0-----0-----0-0-3p0---0---------------
B---------3---3-1---0---0-----1/4---1/4---1/4---------4---4-1---1p------
G-----------------3---3---0-----------------------------------2---------
D-----------------------------------------------------------------------
A-----------------------------------------------------------------------
E-----------------------------------------------------------------------

   F               C               G               C
e-----------------------------------------------------------------------
B-p0---1-------1p0------------------------------------------------------
G----2---2p0-------0-----------------------------------0----------------
D------------2-------2p0-----------------0-2p0---0-----2---2------------
A------------------------2-3---3---0-2-3-------3---3-------3------------
E-----------------------------------------------------------------------

      G                               C
e---------3-----5-----3-----5-----3-------3-----5-----3-----5-----3-----
B-------3-----3-----3-----3-----3-------5-----5-----5-----5-----5-------
G-2/4-------4-----4-----4-----4-------5-----5-----5-----5-----5---------
D-----------------------------------------------------------------------
A-----------------------------------------------------------------------
E-----------------------------------------------------------------------

  G                               C
e-----3-----5-----3-----5-----------0-1-2-3/5p3---0---------------------
B---3-----3-----3-----3---0-1-2-3-4-------------4---1-----1---1---------
G-4-----4-----4-----4---------------------------------2p0---------------
D-----------------------------------------------------------------------
A-----------------------------------------------------------------------
E-----------------------------------------------------------------------

   G                              C
e-----3-----5-----3-----5-----3-------3-----5-----6-----5-----3---------
B---------3-----3-----3-----3-------5-----5-----5-----5-----5-----------
G-2/4---4-----4-----4-----4-------5-----5-----5-----5-----5-------------
D-----------------------------------------------------------------------
A-----------------------------------------------------------------------
E-----------------------------------------------------------------------

  F               C               G               C
e-0---0-1-3-1-0---0---0-------------------------------------------------
B---3-----------3---3---3-1-3-1-0-1p0---1p0-------1---1---1---0-0-------
G-------------------------------------2-----2-0-2-------------0-0-------
D-------------------------------------------------------------0-0-------
A-----------------------------------------------------------------------
E-----------------------------------------------------------------------


Part 4

  G                               C
e-----------------------------------------------------------------------
B-------------5---5-8p5-----5-------------------------------------------
G-----5---5-7---7-------7-8---8-7-7---5---5-----7-7/9-----9---9---------
D-2/7---7---------------------------------------------------------------
A-----------------------------------------------------------------------
E-----------------------------------------------------------------------

  G                                  C
e--------8---------------8.--5---5---8p5--------------------------------
B-8-9-10---10-9-8-9-10-------------------8-5-8p5------------------------
G------------------------------------------------7-5-7p5-7---5---5------
D------------------------------------------------------------------7----
A-----------------------------------------------------------------------
E-----------------------------------------------------------------------

  G                               C
e--------------------------------------------------------8----8-10------
B---------------------------------------------------8-10---10-----------
G-----5---5-7p5-----------------------5---5-7/9-7-9---------------------
D-5h7---7-------7-5-7-5-------5---5-7---7-------------------------------
A-----------------------7-5-7---7---------------------------------------
E-----------------------------------------------------------------------

  F                  C
e-10p8------8-------------8-10-10/12---10-------------------------------
B------9-10---10-9-8-9-10-----------------13----------------------------
G-----------------------------------------------------------------------
D-----------------------------------------------------------------------
A-----------------------------------------------------------------------
E-----------------------------------------------------------------------

  G                     C
e-----------------------------------------------------------------------
B-10-13-10--------------------------------------------------------------
G----------12-9-12-9----------------------------------------------------
D--------------------12-10---10---10---10-10----------------------------
A-----------------------------------------------------------------------
E-----------------------------------------------------------------------

  G                                            
e-----------------------------------------------------------------------
B-----------------------------------------13-15-------------------------
G-------12--------------------12----12-14-------------------------------
D-10/14----14-14---14---12h14----14-------------------------------------
A-----------------------------------------------------------------------
E-----------------------------------------------------------------------

  C                       
e----------------------12----12-15p12-----------------------------------
B-13~--13~--13~--13-15----15----------15-13-15--------------------------
G-----------------------------------------------------------------------
D-----------------------------------------------------------------------
A-----------------------------------------------------------------------
E-----------------------------------------------------------------------

  G
e-----------------------------------------------------------------------
B-16-15-13-15-13--------------------------------------------------------
G----------------14-12-14-12--------------------------------------------
D----------------------------14-12-14-12---12-\-------------------------
A-----------------------------------------------------------------------
E-----------------------------------------------------------------------

  C
e-----------------------------------------------------------------------
B-------------5---5-8-5-----5-------------------------------------------
G-----5---5-7---7-------7-8---8-7---------------------------------------
D-5-7---7---------------------------------------------------------------
A-----------------------------------------------------------------------
E-----------------------------------------------------------------------

  G                               C
e-----------------------------------------------------------------------
B-----------------------------------------------------------------------
G-5-------5---5-7-5-----5-----------------------5-----------------------
D---7-5-7---7-------6-7---7-6-5-----------5-6-7---7-5-5-7-7---7---------
A-------------------------------7-6-5-6-7-------------------------------
E-----------------------------------------------------------------------

  F               C               G               C
e-----------------------------------------------------------------------
B-----------------------------------------------------------------------
G-----5---5-7-------5---------------------5-------5---7---5-------------
D-5-7---7-----7-6-7---7-6-5---5---5---5-7-----7-------------------------
A---------------------------7---7---7-----------------------------------
E-----------------------------------------------------------------------


The End

e-------------------0-------------------------------------0-------------
B-----------0-1-3/4---1---1-----1-0-----------------------1-------------
G-------0-2-------------0-----0-----2-0-------------------0-------------
D-3-2-3---------------------------------3-2-0-------------2-------------
A---------------------------------------------3-2-3.------3-------------
E---------------------------------------------------------3-------------