20150125

JOHN 5 THE CASTLE TAB

John 5 - The Castle is a brilliant guitar song. Exciting guitar playing in a great tuning.
In the original record he uses Open Dsus4 tuning: that is D A D G A D.
See the TAB of the main parts under the video.



JOHN 5 THE CASTLE TAB

GP5 + GP6 + PDF >>

Intro                     - open Dsus4 tuning -

D---------------0-------------------------------0-----------------------
A-----0---5p0---------0---3p0---0-----0---2p0---------0---3p0---0-------
G-------------0---------------0---------------0---------------0---------
D-----------------------------------------------------------------------
A-0h5---5---------0h3---3---------0h2---2---------0h3---3---------------
D-----------------------------------------------------------------------


D---------------0-------------------------------0---------------0-------
A-----0---5p0---------0---3p0---0-----0---2p0---------8---8\7-----------
G-------------0---------------0---------------0---------------0---------
D-----------------------------------------------------------------------
A-0h5---5---------0h3---3---------0h2---2---------2/8---8---------------
D-----------------------------------------------------------------------


D---------------0-------------------------------0-----------------------
A-----0---5p0---------0---3p0---0-----0---2p0---------0---3p0---0-------
G-------------0---------------0---------------0---------------0---------
D-----------------------------------------------------------------------
A-0h5---5---------0h3---3---------0h2---2---------0h3---3---------------
D-----------------------------------------------------------------------



D---------------0-------------------------------0-----------------------
A-----0---5p0---------0---3p0---0-----0---2p0---------0---1p0-----------
G-------------0---------------0---------------0---------------0---------
D---------------------------------------------------------------0-------
A-0h5---5---------0h3---3---------0h2---2---------0h1---1---------------
D-----------------------------------------------------------------(0)---


Part 2  (faster)

D-----------------------------------------------------------------------
A-----------------------------------------------------------------------
G-----------------------------------------------------------------------
D-----0---3p0---------0---5p0---------0---3p0-----5p0---3p0---0---------
A-0h5---5-----5---0h5---5-----5---0h5---5-----5-------5-----5-----------
D-----------------------------------------------------------------------


D-----------------------------------------------------------------------
A-----------------------------------------------------------------------
G-----------------------------------------------------------------------
D-----0---3p0---------0---5p0---------0---3p0-----3p0---5p0---0---------
A-0h5---5-----5---0h5---5-----5---0h5---5-----5-------5-----5-----------
D-----------------------------------------------------------------------


D-------------------------------------------------3p0---------0---------
A-------------------------------------------------------3p0-------------
G-----------------------------------------------------------------------
D-----0---3p0---------0---5p0---------0---3p0---------------------------
A-0h5---5-----5---0h5---5-----5---0h5---5-----5-------5-----5-----------
D-----------------------------------------------------------------------


D-----------------------------------------------------------------------
A-----------------------------------------------------------------------
G-----------------------------------------------------------------------
D-----0---3p0---------0---5p0---------0---3p0---------0---3p0-----------
A-0h5---5-----5---0h5---5-----5---0h5---5-----5---0h5---5-----5---------
D-----------------------------------------------------------------------


D-----------------------------------------------------------------------
A---------------------------------------------------------1p0-----------
G-------------------------2p0-------------------------------------------
D-----0---2p0---------0---------------0---2p0---------0-----------------
A-0h3---3-----3---0h3---3-----3---0h3---3-----3---0h3---3-----3---------
D-----------------------------------------------------------------------


D-----------------------------------------------------------------------
A-----------------------------------------------------------------------
G-----------------------------------------------------------------------
D-----0---3p0---------0---5p0---------0---3p0---------0---3p0-----------
A-0h5---5-----5---0h5---5-----5---0h5---5-----5---0h5---5-----5---------
D-----------------------------------------------------------------------


D-----------------------------------------------------------------------
A-----------------------------------------------------------------------
G-----------------------------------------------------------------------
D-----0---3p0---------0---3p0---------0---2p0---------0---2p0-----------
A-----------------------------------------------------------------------
D-0h3---3-----3---0h3---3-----3---0h2---2-----2---0h2---2-----2---------


D-----------------------------------------------------------------------
A-----0---5p0---------0---5p0---------0---3p0---------0---3p0-----------
G-----------------------------------------------------------------------
D-----------------------------------------------------------------------
A-0h5---5-----5---0h5---5-----5---0h3---3-----3---0h3---3-----3---------
D-----------------------------------------------------------------------


D-----------------------------------------------------------------------
A-----0---2p0---------0---2p0---------0---3p0---------0---2p0-----------
G-----------------------------------------------------------------------
D-----------------------------------------------------------------------
A-0h2---2-----2---0h2---2-----2---0h3---3-----3---0h2---2-----2---------
D-----------------------------------------------------------------------


D-----------------------------------------------------------------------
A-----0---5p0---------0---5p0---------0---3p0---------0---3p0-----------
G-----------------------------------------------------------------------
D-----------------------------------------------------------------------
A-0h5---5-----5---0h5---5-----5---0h3---3-----3---0h3---3-----3---------
D-----------------------------------------------------------------------


D-----------------------------------------------------------------------
A-----0---2p0---------0---2p0---------0---3p0---------0---2p0-----------
G-----------------------------------------------------------------------
D-----------------------------------------------------------------------
A-0h2---2-----2---0h2---2-----2---0h3---3-----3---0h2---2-----2---------
D-----------------------------------------------------------------------


Part 3

D-----------------------------------------------------------------------
A-----------------------------------------------------------------------
G-----------------------------------------------------------------------
D-0---------------------0-3---5---0---------------------0-3---5---------
A-0---------------------0-3---5---0---------------------0-3---5---------
D-0---------------------0-3---5---0---------------------0-3---5---------


D-----------------------------------------------------------------------
A-----------------------------------------------------------------------
G-----------------------------------------------------------------------
D-0---------------------0-3---5---0---------------------0-3---5---------
A-0---------------------0-3---5---0---------------------0-3---5---------
D-0---------------------0-3---5---0---------------------0-3---5---------




DOWNLOAD THIS TAB IN GUITAR PRO


  • click 'Free Download'
  • add your e-mail address
  • you will get an e-mail with your download links (in a few seconds)
  • download the Guitar Pro 6 tab + GP5 + PDF for free
  • and that's all ...


Guitar Pro: a complete workshop for guitarists at an affordable price