20150119

PEPE MARTINEZ FLAMENCO GUITAR TAB (FLAMENCO GUITAR OF PEPE MARTINEZ 5 OF 5)

'Flamenco guitar of Pepe Martinez 5 of 5' - says the original video title.
The guitar tab was written according to the video below and follows Pepe Martinez' live flamenco guitar playing note-for-note. He uses Dropped C# tuning with Capo on 2nd fret.
To make it easier for you the tab is in Dropped D tuning with capo on 1st fret.


PEPE MARTINEZ FLAMENCO GUITAR TAB (5 OF 5)

PDF >>

Dropped D tuning - Capo on 1st

Part 1

e-5555-------4444-------5555--------------------------------------------
B----3----------3----------3--------------------------------------------
G----2----------2----------2--------------------------------------------
D----4----------4----------4--------------------------------------------
A----0----------0----------0--------------------------------------------
D----0----------0----------0--------------------------------------------


e-10101010---9999---10101010---9999---7777------------------------------
B-------7-------8---------7-------8------6------------------------------
G-------7-------9---------7-------9------7------------------------------
D-------7-------7---------7-------7------6------------------------------
A-------0-------0---------0-------0-------------------------------------
D-------0-------0---------0-------0-------------------------------------


e-5555---------3333-------0h2-2----0------------------------------------
B----3------------2-------------3-----2-3-0-2----0----------------------
G----2------------0----------------------------2---1-2~-----------------
D----4------------2-----------------------------------------------------
A----0------------0-----------------------------------------------------
D----0------------------------------------------------------------------



e-----------------0---2-0-3---2.--5.--3-/---7~--------------------------
B-----0---2-0-3-2---3---------------------------------------------------
G-1-----2---------------------------------------------------------------
D-----------------------------------------------------------------------
A-----------------------------------------------------------------------
D-----------------------------------------------------------------------


e-5.--3-2-0-2-3-5-3-2-0-------------------------------------------------
B-----------------------3-2-0-------------------------------------------
G-----------------------------2-0---------------------------------------
D---------------------------------4-2-0---------------------------------
A---------------------------------------4-2-0---------------------------
D---------------------------------------------5-4-2-0-------------------


Part 2

e-0-0-0-0-0-0-0-0-0-0-0-0--5-5-5-5-5-5-5-5-5-5-5-5----------------------
B-5-5-7-7-8-8-8-8-7-7-5-5--7-7-7-7-7-7-7-7-7-7-7-7----------------------
G-6-6-6-6-6-6-6-6-6-6-6-6--7-7-7-7-7-7-7-7-7-7-7-7----------------------
D-7-7-7-7-7-7-7-7-7-7-7-7--0-0-0-0-0-0-0-0-0-0-0-0----------------------
A-0---------------------------------------------------------------------
D-----------------------------------------------------------------------


e-0-0-0-0-0-0-0-0-0-0-0-0--5-5-5-5-5-5-5-5-5-5-5-5----------------------
B-5-5-7-7-8-8-8-8-7-7-5-5--7-7-7-7-7-7-7-7-7-7-7-7----------------------
G-6-6-6-6-6-6-6-6-6-6-6-6--7-7-7-7-7-7-7-7-7-7-7-7----------------------
D-7-7-7-7-7-7-7-7-7-7-7-7--0-0-0-0-0-0-0-0-0-0-0-0----------------------
A-0---------------------------------------------------------------------
D-----------------------------------------------------------------------


e-7-7-9-9-10-10-9-9-7-7-5-5--5-5-5-5-5-5-5-5-5-5-5-5--------------------
B-0-0-0-0--0--0-0-0-0-0-0-0--7-7-7-7-7-7-7-7-7-7-7-7--------------------
G-0-0-0-0--0--0-0-0-0-0-0-0--7-7-7-7-7-7-7-7-7-7-7-7--------------------
D-0-0-0-0--0--0-0-0-0-0-0-0--0-0-0-0-0-0-0-0-0-0-0-0--------------------
A-----------------------------------------------------------------------
D-----------------------------------------------------------------------


e-7-7-9-9-10-10-9-9-7-7-5-5--5-5-5-5-5-5-5-5-5-5-5-5--------------------
B-0-0-0-0--0--0-0-0-0-0-0-0--7-7-7-7-7-7-7-7-7-7-7-7--------------------
G-0-0-0-0--0--0-0-0-0-0-0-0--7-7-7-7-7-7-7-7-7-7-7-7--------------------
D-0-0-0-0--0--0-0-0-0-0-0-0--0-0-0-0-0-0-0-0-0-0-0-0--------------------
A-----------------------------------------------------------------------
D-----------------------------------------------------------------------


e-0-0-0-0-0-0-0-0-0-0-0-0--2-2-0-0-2-2-0-0-2-0-2-0----------------------
B-5-5-7-7-8-8-8-8-7-7-5-5--3-3-3-3-3-3-3-3-3-3-3-3----------------------
G-6-6-6-6-6-6-6-6-6-6-6-6--2-2-2-2-2-2-2-2-2-2-2-2----------------------
D-7-7-7-7-7-7-7-7-7-7-7-7--0-0-0-0-0-0-0-0-0-0-0-0----------------------
A-0---------------------------------------------------------------------
D-----------------------------------------------------------------------


Part 3

e--------0--------0--------2----2-------2-------------------------------
B-------2--------2--------3-----3-------3-------------------------------
G------0--------0--------2------2---2-----------------------------------
D-----2---------------------4-------------------------------------------
A-0-------4-2------0----------------------------------------------------
D--------------------0--------------------------------------------------

Fast
e---0-----------0-----------2-------2-------2---------------------------
B---2-----------2-----------3-------3-------3---------------------------
G-----0-----------0-----------2---2---2-4p2---2-------------------------
D-------------------------------4---------------4-----------------------
A-0-----4p2p0-2-----0h2p0-----------------------------------------------
D-------------------------0---------------------------------------------


e---0-----------0------------2-------2---2------------------------------
B---2-----------2------------3------3----3------------------------------
G-----0-----------0----------2-----2-----2------------------------------
D-------------------------------4-----3---------------------------------
A-0-----4p2p0-2-----0h2p0-----------------------------------------------
D-------------------------0---------------------------------------------


e---0-----0------2------------------0----2----0-------------------------
B---2-----2-----3-3---2----0----2---0----3----2-------------------------
G-------0------2-----2-2--0-0--0-0---0----2----0------------------------
D-2---4-----2-------2----0----2--------4----2---------------------------
A-------------5----4----2----0------------------------------------------
D---------------------------------5-------------------------------------


e--------0h2h3p2p0-0h2---------0h3---0-------0h2h3p2p0--2-----0h3---0---
B-------3---------3---3-------2----2--------3---------3-----2-----2-----
G------2---------------------0-------------2----------------------------
D-----0---------------------2----------0----------------------2---------
A-----------------------0---------------------------------0-------------
D-0---------------------------------------------------------------------


e---2---2---0---3-----3-----2---2-------0-----0------2--2---2-----------
B---3---3---0---3-----3-----3---3-------2-----2-----3---3---3-----------
G---------2---------4-----2---------------0-----0-2---4---2-------------
D-0---4-------5---7-----5-----4---0-4-2-----4---------------------------
A-----------------------------------------------------------------------
D-----------------------------------------------------------------------


e---3-----3-----3-----3-----2-----2-----2-----2-----0-----0-----0-----0-
B---3-----3-----3-----3-----3-----3-----3-----3p2---2-----2-----2-----2-
G-----4-4---4-----4-----0-----2-2---2-----2-----------0-0---0-----0----0
D-5-----------7-----5-----4-----------5-----4-----2-----------------2---
A-------------------------------------------------------------4---------
D-----------------------------------------------------------------------


e----------2-----2-------2----------------------------------------------
B---------3-3---3-3-----3-3---------------------------------------------
G--------2---2-2---2---2---2--------------------------------------------
D-------------4-------4-----4-------------------------------------------
A--------------------5-------5------------------------------------------
D-0-----------------0---------0-----------------------------------------