20150111

THE RYDERS SECRET LOVE TAB (LIVE IN TILBURG 2010)


The Ryders play a brilliant instrumental version of Secret Love live in Tilburg.
The lead guitarist is called Kurt Fröberg.
See the TAB of the lead guitar line and the chords here.



THE RYDERS SECRET LOVE TAB

PDF >>

Part 1

  A
e-----------------------------------------------------------------------
B-----------------------------------------------------------------------
G-----------------------------------------------------------------------
D-----2-2-----2-2-----2-2-----2-2-----2-2-----2-2-----2-2---------------
A-0---------------0---------------0---------------0---------------------
E---------0---------------0---------------0---------------0-------------
  x   x x x   x x x   x x x   x x x   x x x   x x x   x x x

  A
e-----------------------------------------------------------------------
B-----------------------------------------------------------------------
G-----------------------------------------------------------------------
D-1h2---1/2-----------0h2p0---------------------------------------------
A---------------------------4---0---2---4-------------------------------
E-------------------------------------------0---------------------------

  A                                   Bm     E
e-----------------------------------------------------------------------
B-----------------------------------------------------------------------
G-----------------------------------------------------------------------
D-------------------------0---2---4-------------------------------------
A-----0-----------2---4---------------2---------------------------------
E-0---------------------------------------------------------------------


  E
e-----------------------------------------------------------------------
B-----------------------------------------------------------------------
G-----------------------------------------------------------------------
D-----------------------------------------------------------------------
A-5---5-----------4---2-------0---2-------------------------------------
E-------------------------4-----------0---------------------------------

  E                                   A
e-----------------------------------------------------------------------
B-----------------------------------------------------------------------
G-----------------------------------------------------------------------
D-----------------------------------------------------------------------
A-----------------0---2---4---0-------0---------------------------------
E-0---4---------------------------2-------------------------------------

  A
e-----------------------------------------------------------------------
B-5---5-----------3h5p3-2-----------2-----------------------------------
G---------------------------2---4---------------------------------------
D---------------------------------------2-------------------------------
A-----------------------------------------------------------------------
E-----------------------------------------------------------------------

  A                                     Bm    E    
e-------------------------------0---2-----------------------------------
B-------------------0---2---3-----------0-------------------------------
G-------2---------------------------------------------------------------
D-1/2-------------------------------------------------------------------
A-----------------------------------------------------------------------
E-----------------------------------------------------------------------

  E
e-1/2---2---------------------------------------------------------------
B-2/3---3-----------2h3p2-0---------------------------------------------
G-----------------------------1---2---4---------------------------------
D-----------------------------------------2-----------------------------
A-----------------------------------------------------------------------
E-----------------------------------------------------------------------

  E                                   A
e-----------------------------------------------------------------------
B-------------------------2---------------------------------------------
G-----1-----------2---4-------2-------2---------------------------------
D-2-------------------------------4-------------------------------------
A-----------------------------------------------------------------------
E-----------------------------------------------------------------------


Part 2

  F#m                   B               E
e-5-----5---------4h5p4-------------------------------------------------
B-7-----7---------------7---4---5---7---7/9-----------------------------
G-------------------------------------------------9---------------------
D---------------------------------------------9-----------9-------------
A-----------------------------------------------------------------------
E-----------------------------------------------------------------------

  Em                    A               D               Dm
e-7---7-------------------------------------------------5---------------
B-8---8-----------7h8p7-----------------7---------------6---------------
G-----------------------9---6---7---9-----------------------------------
D-----------------------------------------------7-----------------------
A-----------------------------------------------------------------------
E-----------------------------------------------------------------------

   A                                     A       G       F#
e-----------------------------------------------------------------------
B-/5---5-----------3h5p3-2-----------2---5.------3.------2--------------
G----------------------------2---4---------------4.------3--------------
D------------------------------------------------5.------4--------------
A-----------------------------------------------------------------------
E-----------------------------------------------------------------------

       Bm              E               A                E
e------------------2----------------------------------------------------
B----------2---3-------5.----2------------------------------------------
G------4---------------------------4---2--------------------------------
D-4.-----------------------2-----2----------------2h4---2---------------
A-----------------------------------------------------------------------
E-----------------------------------------------------------------------


Part 3

  A                                        
e-----------------------------------------------------------------------
B-----------------------------------------------------------------------
G---------------------------------2.------------------------------------
D-1h2-2-2-1h2-2-2-1h2-2-2-1h2-2-2------4.---2---------------------------
A---------------------------------------------3\2-0---------------------
E-----------------------------------------------------------------------

  A                                           Bm                   E
e--------------------------------------5.-----7.------------------------
B-------------------------------5-7.---------------10-9-7---------------
G-------------------------4-4/6---------------------------9.---7--------
D--------------2-4-2.--------------------------------------------9-6----
A-----0-2/4.------------------------------------------------------------
E-0-2-------------------------------------------------------------------

  E
e-----------------------------------------------------------------------
B-5.---5-5/9.---7.---5--------------------------------------------------
G----------------------7.---4-------------------------------------------
D---------------------------------6.---4-2.-----------------------------
A-----------------------------------------------------------------------
E-----------------------------------------------------------------------

  E
e-----------------------------------------------------------------------
B-----------------------------------------------------------------------
G-----------------------------------------------------------------------
D--------2--------------------------------------------------------------
A-2-h4-----2h4-2-2h4-2--------------------------------------------------
E----------------------3-h4-0-------------------------------------------

  E                                               A
e-------------------------------7-9.---7~---------5---5---5-------------
B-------------------5---7-7/9-----------------------7---7---7-----------
G---------------4-6---6---------------------------------------5h6-------
D-2-4-2-4-4/6p4---------------------------------------------------7-----
A-----------------------------------------------------------------------
E-----------------------------------------------------------------------


Part 4

  F#m                   B                E
e-5.---5-5--------4h5p4--------------------7----------------------------
B-7.---7-7--------------7---4---5.---7---9---9.-----9-------------------
G-------------------------------------------------9---9.----------------
D----------------------------------------------------------9------------
A-----------------------------------------------------------------------
E-----------------------------------------------------------------------

  Em                    A               D               Dm
e-7---7-------------------------------------------------5---------------
B-8---8-----------7h8p7-----------------7---------------6---------------
G-----------------------9---6---7---9-------------------7---------------
D--------------------------------------------------7.-------------------
A-----------------------------------------------------------------------
E-----------------------------------------------------------------------

   A                                     A       G       F#
e-----------------------------------------------------------------------
B--5---5-----------3h5p3-2-----------2---5.------3.------2--------------
G----------------------------2---4---------------4.------3--------------
D------------------------------------------------5.------4--------------
A-----------------------------------------------------------------------
E-----------------------------------------------------------------------

       Bm              E               A              F
e------------------2----------------------------------------------------
B----------2---3-------5.----2------------------------------------------
G------4---------------------------4---2--------------------------------
D-4.-----------------------2-----2----------------2-/-3-----------------
A-----------------------------------------------------------------------
E-----------------------------------------------------------------------


Part 5

  Bb
e-----------------------------------------------------------------------
B-----------------------------------------------------------------------
G-----------------------------------------------------------------------
D-2h3---3-3-2h3---1---0h1p0---------0-----------------------------------
A---------------------------1---3---------------------------------------
E---------------------------------------0h1---1-1---1-1-1-0h1-1-1-0h1-1-

  Bb                              Cm              F
e-----------------------------------------------------------------------
B-----------------------------------------------------------------------
G-----------------------------0-----------------------------------------
D-----------------0---1---3---------------------------------------------
A-1---1-------3-------------------3-----------1---0---------------------
E-----------------------------------------------------------------------

  F
e-----------------------------------------------------------------------
B-----------------------------------------------------------------------
G-----------------------------------------------------------------------
D-3---3---1---1---0h1p0-------------------------------------------------
A-----------------------3---0---1---3-----------------------------------
E---------------------------------------1-------------------------------

  F                                   Bb
e-----------------------------------------------------------------------
B-----------------------------------------------------------------------
G-----------------------------------------------------------------------
D-------------------------0---------------------------------------------
A-----0-----------1---3-------1-------1---------------------------------
E-1-------------------------------3-------------------------------------


Part 6

  Gm                    C               F
e-6-----6---------5h6p5-------------------------------------------------
B-8-----8---------------8---5---6.--8---8/10.---------------------------
G-------------------------------------------------10--------------------
D---------------------------------------------------------10------------
A-----------------------------------------------------------------------
E-----------------------------------------------------------------------

  Fm                    Bb                D#              D#m
e-8----8--------------------------------------------------6-------------
B-9----9----------8h9p8-------------------8---------------7-------------
G-----------------------10---7---8---10---------------------------------
D-------------------------------------------------8---------------------
A-----------------------------------------------------------------------
E-----------------------------------------------------------------------

   Bb                                    Bb      G#      G
e-----------------------------------------------------------------------
B--6---6-----------4h6p4-3-----------3---6.------4.------3--------------
G----------------------------3---5---------------5.------4--------------
D------------------------------------------------6.------5--------------
A-----------------------------------------------------------------------
E-----------------------------------------------------------------------

       Cm              F                Dm              G
e------------------3--------------------------------5-------------------
B----------3---4-------6--------------------5---6-------8---------------
G------5--------------------------------7-------------------------------
D-5.-----------------------------6/7.-----------------------------------
A-----------------------------------------------------------------------
E-----------------------------------------------------------------------

         Cm              F                Bb
e--------------------3--------------------------------------------------
B------------3---4-------6.-----3---------2/3-------------2/3-----------
G--------5----------------------------5---2/3-------------2/3-----------
D-4/5.------------------------3-----3-----------------------------------
A-----------------------------------------------------------------------
E-----------------------------------------------------------------------

   Bb                Bb
e-----------------------------------------------------------------------
B--------------------3--------------------------------------------------
G--2/3-2/3-----------3--------------------------------------------------
D--2/3-2/3-----------3--------------------------------------------------
A--------------------1--------------------------------------------------
E-----------------------------------------------------------------------



The Chords

   A       E       Bm      F#m     B      Em     D       Dm     G     Fm
e--0-------0-------2--------2------2------0------2-------1------3-----1-
B--2-------0-------3--------2------4------0------3-------3------3-----1-
G--2-------1-------4--------2------4------0------2-------2------4-----1-
D--2-------2-------4--------4------4------2------0-------0------5-----3-
A--0-------2-------2--------4------2------2---------------------5-----3-
E----------0----------------2-------------0---------------------3-----1-


   F#      F       Bb       Cm     Gm     C      D#     D#m      G#
e--2-------1-------1--------3------3------3------6-------6-------4------
B--2-------1-------3--------4------3------5------8-------7-------4------
G--3-------2-------3--------5------3------5------8-------8-------5------
D--4-------3-------3--------5------5------5------8-------8-------6------
A--4-------3-------1--------3------5------3------6-------6-------6------
E--2-------1-----------------------3-----------------------------4------