20150222

AKRON/FAMILY AWAKE & MOMENT TAB (INTRO)

There is a nice intro part in Awake & Moment by Akron/Family. (0:00-2:29)
It is played in Dropped D tuning but unless 1 note you can play it in standard tuning too.
See the TAB under the video.



AKRON/FAMILY AWAKE & MOMENT INTRO TAB

PDF >>

e-----------------------------------------------------------------------
B-------5-------------------3-----------3-------------------3-----------
G-3---------3---------3-----------2---------2---------2-----------------
D-----5-------5-------5-------5-\-----3-------3-------3-------3---------
A-0-------0-------0-------0-------0-------0-------0-------0-------------
D-----------------------------------------------------------------------


e-----------------------------------------------------------------------
B-------2-------------------2---------------2---------------2-----------
G-0---------0-----2-------------2-----2---------------2-----------------
D-----2-------2-------2-------2-------2-------2-------2-------2---------
A-0-------0-------0---------------0---------------0---------------------
D-----------------------------------------------------------------------


e-----------------------------------------------------------------------
B-------5-------------------3-----------3-------------------3-----------
G-3---------3---------3-----------2---------2---------2-----------------
D-----5-------5-------5-------5-\-----3-------3-------3-------3---------
A-0-------0-------0-------0-------0-------0-------0-------0-------------
D-----------------------------------------------------------------------



e-----------------------------------------------------------------------
B-------2-------------------2---------------2---------------------------
G-0---------0-----2-------------2-----2---------2-----2-------2---------
D-----2-------2-------2-------2-------2-------2-------2-------2---------
A-0-------0-------0-------0-------0-------0-------0-------0-------------
D-----------------------------------------------------------------------


e-----------------------------------------------------------------------
B-------5-------------------3-----------3-------------------3-----------
G-3---------3---------3-----------2---------2---------2-----------------
D-----5-------5-------5-------5-\-----3-------3-------3-------3---------
A-0-------0-------0-------0-------0-------0-------0-------0-------------
D-----------------------------------------------------------------------


e-----------------------------------------------------------------------
B-------2-------------------2---------------2---------------2-----------
G-0---------0-----2-------------2-----2---------2-----2-----------------
D-----2-------2-------2-------2-------2-------2-------2-------2---------
A-0-------0-------0-------0-------0-------0-------0-------0-------------
D-----------------------------------------------------------------------


e-----------------------------------------------------------------------
B-------5-------------------3-----------3-------------------3-----------
G-3---------3---------3-----------2---------2---------2-----------------
D-----5-------5-------5-------5-\-----3-------3-------3-------3---------
A-0-------0-------0-------0-------0-------0-------0-------0-------------
D-----------------------------------------------------------------------


e-----------------------------------------------------------------------
B-------2-------------------2---------------2---------------2-----------
G-0---------0-----2-------------------2---------------2-----------------
D-----2-------2-------2-------2-------2-------2-------2-------2---------
A-0-------0-------0---------------0---------------0---------------------
D-----------------------------------------------------------------------


Singing part

e-----------------------------------------------------------------------
B-------5-----------------3-------------3-----------------3-------------
G-3---------3-----3---------------2---------2---------2-----2-----------
D-----5-------5---5---------------3-------3---3-------3-------3---------
A-0-------0-----------0-------0-------0-----------0-----------0---------
D-----------------------------------------------------------------------


e-----------------------------------------------------------------------
B-------2---------------2---------------2---------------2---------------
G-0---------0-----2---------2---2-----2-----2---2-----2-----2-----------
D-----2-------2-------2-------2-------2-------2-------2-------2---------
A-0-------0-------0-------0-------0---------------0---------------------
D-----------------------------------------------------------------------


e-----------------------------------------------------------------------
B-------5-----------------3-------------3-----------------3-------------
G-3---------3-----3---------------2---------2-----2---------2-----------
D-----5-------5-------5-----------3-----------3-------3-------3---------
A-0-------0-------0-----------0-------0---0-------0---------------------
D-----------------------------------------------------------------------


e-----------------------------------------------------------------------
B-------2---------------2---------------2-------------------2-----------
G-0---------0-----2---------2---2-----2-----2---2-------2---------------
D-----2-------2-------2-------2-------2-------2-------2-------2---------
A-0-------0-------0-------0-------0---------------0---------------------
D-----------------------------------------------------------------------


e-----------------------------------------------------------------------
B-------5-----------------3-------------3-----------------3-------------
G-3---------3-----3---------------2---------2-----2---------2-----------
D-----5-------5-------5-----------3---3-------3-------3-------3---------
A-0-------0-------0-----------0-----------0-------0---------------------
D-----------------------------------------------------------------------


e-----------------------------------------------------------------------
B-------2-------------------------------0---------------0---------------
G-0---------0-----2-------0-----------------2---------------2-----------
D-----2-------2-------2-----------3---3-------3-------3-------3---------
A-0-------0-------0-------0-------5-------5-------5-------5-------------
D-----------------------------------------------------------------------


e-----------------------------------------------------------------------
B-------0---------------0---------------0---------------0---------------
G-----------2---------------2---------------2---------------2-----------
D-----3-------3-------3-------3-------3-------3-------3-------3---------
A-5-------5-------5-------5---------------5-------5-------5-------------
D---------------------------------0-------------------------------------


e-----------------------------------------------------------------------
B-------0-------------------------------2---------------2---------------
G-----------2-------------0-----------------0---------------0-----------
D-----3-------3---3-------------------2-------2-------2-------2---------
A-5-------5-----------------------0-------0-------0-------0-------------
D-----------------------------------------------------------------------


e-----------------------------------------------------------------------
B-------2---------------2---------------2---------------2---------------
G-----------0---------------0---------------0---------------0-----------
D-----2-------2-------2-------2-------2-------2-------2-------2---------
A-0-------0-------0-------0-------0-------0-------0-------0-------------
D-----------------------------------------------------------------------


e-----------------------------------------------------------------------
B-------2---------------------------------------------------------------
G-----------0-----------------------------------------------------------
D-----2-------2---------------------------------------------------------
A-0-------0-------0-----------------------------------------------------
D-----------------------------------------------------------------------