20150208

MIKE PINTO TEMPTATION TAB (LIVE AT THE MOBOOGIE LOFT)

Mike Pinto plays Temptation acoustically live at the MoBoogie.
Cool intro solo with some reggae chords.
See the TAB under the video.


MIKE PINTO TEMPTATION TAB

PDF >>

Intro

e-5-7-7-7-7.--7.--5-7-7-7--8-7.--5.--2-----------7-5--------------------
B-7-8-8-8-8.--8.--7-8-8-8-10-8.--7.--4---------------8-7-5-7-4.---------
G----------------------------------------------4------------------------
D-----------------------------------------------------------------------
A-----------------------------------------------------------------------
E-----------------------------------------------------------------------


e-5-7-7-7-7.--7.--5-7-7-7--8-7.--5.--2-----------2-2/3\2.--2---3.-------
B-7-8-8-8-8.--8.--7-8-8-8-10-8.--7.--4-----------4-4/5\4.--4---5.-------
G-----------------------------------------------------------------------
D-----------------------------------------------------------------------
A-----------------------------------------------------------------------
E-----------------------------------------------------------------------


e-5-7-7-7-7.--7.--5-7-7-7--8-7.--5.--2-----------7-5--------------------
B-7-8-8-8-8.--8.--7-8-8-8-10-8.--7.--4---------------8-7-5-7-4.---------
G----------------------------------------------4------------------------
D-----------------------------------------------------------------------
A-----------------------------------------------------------------------
E-----------------------------------------------------------------------



e-5-7-7-7-7.--7.--5-7-7-7--8-7.--5.--2----------------------------------
B-7-8-8-8-8.--8.--7-8-8-8-10-8.--7.--4----------------------------------
G-----------------------------------------------------------------------
D-----------------------------------------------------------------------
A-----------------------------------------------------------------------
E-----------------------------------------------------------------------



Verse

 / Em / B //



Solo (1:11 - 1:23)

e-----------7----------------7---------------7------------7-8--7--------
B------8-10---8---------8-10---8-----------7------------7---------10----
G-----9---------9------9---------9-------8-------------8----------------
D----9----------------9-----------------9-------------9-----------------
A--------------------------------------9--------------------------------
E-----------------------------------------------------------------------


e-----------7----------------7---------------7-------7-7-7-7-7-7-7-7-7.-
B------8-10---8---------8-10---8-----------7---------7-7-7-7-7-7-7-7-7.-
G-----9---------9------9---------9-------8-----------8-8-8-8-8-8-8-8-8.-
D----9----------------9-----------------9------------9-9-9-9-9-9-9-9-9.-
A--------------------------------------9-------------9-9-9-9-9-9-9-9-9.-
E----------------------------------------------------7-7-7-7-7-7-7-7-7.-



Verse

 / Em / B //



Bridge

C  B  / Em  / C  B / Em //

C  B  / Em  G / C  B  / C  B  / C  B //



Solo 2 ~ Intro


e-5-7-7-7-7.--7.--5-7-7-7--8-7.--5.--2-----------7-5--------------------
B-7-8-8-8-8.--8.--7-8-8-8-10-8.--7.--4---------------8-7-5-7-4.---------
G----------------------------------------------4------------------------
D-----------------------------------------------------------------------
A-----------------------------------------------------------------------
E-----------------------------------------------------------------------


e-5-7-7-7-7.--7.--5-7-7-7--8-7.--5.--2-----------2-2/3\2.--2---3.-------
B-7-8-8-8-8.--8.--7-8-8-8-10-8.--7.--4-----------4-4/5\4.--4---5.-------
G-----------------------------------------------------------------------
D-----------------------------------------------------------------------
A-----------------------------------------------------------------------
E-----------------------------------------------------------------------


e-5-7-7-7-7.--7.--5-7-7-7--8-7.--5.--2-----------7-5--------------------
B-7-8-8-8-8.--8.--7-8-8-8-10-8.--7.--4---------------8-7-5-7-4.---------
G----------------------------------------------4------------------------
D-----------------------------------------------------------------------
A-----------------------------------------------------------------------
E-----------------------------------------------------------------------


e-5-7-7-7-7.--7.--5-7-7-7--8-7.--5.--2---------------14-----------------
B-7-8-8-8-8.--8.--7-8-8-8-10-8.--7.--4---------------16-----------------
G-----------------------------------------------------------------------
D-----------------------------------------------------------------------
A-----------------------------------------------------------------------
E-----------------------------------------------------------------------



Verse

 / Em / B //



Chords

  Em           B          C         G
e-7------------7----------8---------------------------------------------
B-8------------7----------8---------12----------------------------------
G-9------------8----------9---------12----------------------------------
D-9------------9----------10--------12----------------------------------
A-7------------9----------10--------10----------------------------------
E--------------7----------8---------------------------------------------