20150318

MIKE POSS ROMANTIC GUITAR INSTRUMENTAL TAB


Mike Poss playing a great Romantic Guitar Instrumental song.
He is using a custom made Explorer guitar - made by Joe Weber.
See the TAB under the video. (2nd guitar line included)



MIKE POSS ROMANTIC GUITAR INSTRUMENTAL TAB

GP5 + GP6 + PDF >>

Part 1

e-----------------------------------------------------------------------
B-----------------------------------------------------------------------
G------------14---------------9---------------4-/-6---------------------
D-------11----------------7---------------2-------------------7---6-----
A---9-------------9.--5-----------5.--0-------------------7-------------
E-----------------------------------------------------0-----------------


e-----------------------------------------------------------------------
B-----------------------------------------------------------------------
G------------14---------------9---------------4-/-6---------------------
D-------11----------------7---------------2-------------------4-/-6-----
A---9-------------9.--5-----------5.--0-------------------2-------------
E-----------------------------------------------------0-----------------


e-----------------------------------------------------------------------
B-----------------------------------------------------------------------
G------------14---------------9---------------4-/-6---------------------
D-------11----------------7---------------2-------------------7---6-----
A---9-------------9.--5-----------5.--0-------------------7-------------
E-----------------------------------------------------0-----------------



e-----------------------------------------------------------------------
B-----------------------------------------------------------------------
G------------14---------------9---------------4-/-6---------------------
D-------11----------------7---------------2-------------------4-/-6-----
A---9-------------9.--5-----------5.--0-------------------2-------------
E-----------------------------------------------------0-----------------


e---------------0---------------0---------------------------------------
B-------------------------------------------2---3---------------2-------
G-----------7---------------6-------------------------------4-----------
D-------7---------------6---------------4---------------2---------------
A---5---------------4---------------2---------------0-------------------
E-----------------------------------------------------------------------


e---------------0---------------0-------------------2~------------------
B-----------3---------------3-------------------2-----------------------
G-------2-----------------------------------2---------------------------
D---0-------------------4---------------4-------------------------------
A-------------------2---------------------------------------------------
E-----------------------------------2-----------------------------------


e---------------0---------------0---------------------------------------
B-------------------------------------------2---3---------------2-------
G-----------7---------------6-------------------------------4-----------
D-------7---------------6---------------4---------------2---------------
A---5---------------4---------------2---------------0-------------------
E-----------------------------------------------------------------------


e---------------------------------------------------0-------------------
B-----------3---------------5---------------5-------0-------------------
G-----------2---------------4---------------7-------9-------------------
D-------4-------4-------6-------6-------7-------7---9-------------------
A---2---------------4---------------5---------------7-------------------
E-----------------------------------------------------------------------


Part 2

e-----------------------------------------------------------------------
B---9h10~----------9---7h9p7-----7--------------------------------------
G----------------------------9-------9~-------7---6h7p6-----6-----------
D-------------------------------------------------------9-------7~------
A-----------------------------------------------------------------------
E-----------------------------------------------------------------------


e-----------------------------------------------------------------------
B---9(10)~-----9---7----------------------------------------------------
G----------------------9---7---6~---------------------------------------
D------------------------------------------9\7/9~-----------------------
A-----------------------------------------------------------------------
E-----------------------------------------------------------------------


e-----------------------------------------------------------------------
B---9h10~---------9---7h9p7-----7---------------------------------------
G---------------------------9-------9~------7---6h7p6-----6-------------
D-----------------------------------------------------9-------7--/--16~-
A-----------------------------------------------------------------------
E-----------------------------------------------------------------------


e-----------------------------------------------------------------------
B-----------------------------------------------------------------------
G-----------------------------------------------------------------------
D---14.--12.--11.--9.--7~---------9/11----------------------------------
A--------------------------------------7~-------------------------------
E-----------------------------------------------------------------------





DOWNLOAD THIS TAB IN GUITAR PRO



  • click 'Free Download'
  • add your e-mail address
  • you will get an e-mail with your download links (in a few seconds)
  • download the Guitar Pro 6 tab + GP5 + PDF for free
  • and that's all ...


Guitar Pro: a complete workshop for guitarists at an affordable price