20150327

THE VIOLENTS ANACONDA TAB


Anaconda by The Violents from 1961. Great instrumental guitar song.
See the TAB under the video.



THE VIOLENTS ANACONDA TAB

PDF >>

Part 1

                C                           Dm
e-------8-7-5-----------------------8-8-7-5----5------------------------
B---5-8-------8-5~--------------5-8---------6-----6---------------------
G-5---------------------------5----------------------7------------------
D-----------------------------------------------------------------------
A-----------------------------------------------------------------------
E-----------------------------------------------------------------------

               G7                                    C
e-----------------------7~----------7---7--8---7--5--3~-----------------
B---5-6--8--9--10-----8-8~----------8---8--10--8--6--5~-----------------
G-7---------------------------------------------------------------------
D-----------------------------------------------------------------------
A-----------------------------------------------------------------------
E-----------------------------------------------------------------------

                C                             F
e-------8-7-5-------------------------6-6-8-6-5-----8-5~----------------
B---5-8-------8-5~----------------5-8-----------------------------------
G-5-----------------------------5---------------------------------------
D-----------------------------------------------------------------------
A-----------------------------------------------------------------------
E-----------------------------------------------------------------------



          Fm          C                G7                  C
e-------8-12-10-8h10------------8-7-------------------------------------
B----10-------------9-8-------8-----10-8-----8/10-8---------------------
G-10------------------------9-----------------------10-9-7--------------
D----------------------------------------------------------10-----------
A-----------------------------------------------------------------------
E-----------------------------------------------------------------------



Part 2

                     G7
e-----------------------------------------------------------------------
B-----------------------------------------------------------------------
G-/5-5-5-5---5-4---2-----4-2--------------------------------------------
D--------------------5---------5-3--------------------------------------
A-----------------------------------------------------------------------
E-----------------------------------------------------------------------

                     C
e-----------------------------------------------------------------------
B-----------------------------------------------------------------------
G-/4-4-4-4---4-2-----2---5-2--------------------------------------------
D------------------5-----------5-2--------------------------------------
A-----------------------------------------------------------------------
E-----------------------------------------------------------------------

                    G7
e-----------------------------------------------------------------------
B-----------------------------------------------------------------------
G-5---5-5---5-4---2-----4-2---------------------------------------------
D-------------------5---------5-3---------------------------------------
A-----------------------------------------------------------------------
E-----------------------------------------------------------------------

                      C
e-----------------------------------------------------------------------
B-----------------------------------------------------------------------
G-----------------------------------------------------------------------
D-3/5---5-5---3-2-------------------------------------------------------
A-------------------5-3-------------------------------------------------
E-----------------------------------------------------------------------



Part 3

                C#                                D#m
e-------9-8-6-4-------4-------------------9-9-8-6------6----------------
B---6-9---------6-------6-------------6-9---------7-77---7--------------
G-6---------------------------------6----------------------8------------
D-----------------------------------------------------------------------
A-----------------------------------------------------------------------
E-----------------------------------------------------------------------
  x x x x x x x x     x x           x x x x x x x x xx x x x


                  G#7                             C#
e--------------6--8-----8-8---------888-8-9-9-8-6-----------------------
B-----6--7--9-------------------------------------9---------------------
G-8---------------------------------------------------------------------
D-----------------------------------------------------------------------
A-----------------------------------------------------------------------
E-----------------------------------------------------------------------
  x   x  x  x  x  x     x x         xxx x x x x x x


                C#                       C#7     F#
e-------9-8-6-4-------4------------------7-7-9-7-6-----9-6--------------
B---6-9---------6-------6------------6-9--------------------------------
G-6--------------------------------6------------------------------------
D-----------------------------------------------------------------------
A-----------------------------------------------------------------------
E-----------------------------------------------------------------------
  x x x x x x x x     x x          x x x x x x x x     x x


         F#m        C#                G#7                C#
e------9-13-11-9---------------9-8--------------------------------------
B-7-11-----------10-9--------9-----11-9-----11-9------------------------
G-------------------------10---------------------11-10-8----------------
D--------------------------------------------------------11-------------
A-----------------------------------------------------------------------
E-----------------------------------------------------------------------
  x x  x x  x  x x  x     x  x x x x  x     x  x x  x  x x


Part 4

                     G#7
e-----------------------------------------------------------------------
B-----------------------------------------------------------------------
G-/6-6-6-6---6-5---3-----5-3h5p3----------------------------------------
D--------------------6----------6-4-------------------------------------
A-----------------------------------------------------------------------
E-----------------------------------------------------------------------

                     C#
e-----------------------------------------------------------------------
B-----------------------------------------------------------------------
G-/5---5-5---5-3-----3---6-3--------------------------------------------
D------------------6-----------6-3--------------------------------------
A-----------------------------------------------------------------------
E-----------------------------------------------------------------------

                      G#7
e-----------------------------------------------------------------------
B-----------------------------------------------------------------------
G-6-6---6-6---6-5---3-----5-3-------------------------------------------
D---------------------6---------6-4-------------------------------------
A-----------------------------------------------------------------------
E-----------------------------------------------------------------------

                        C#
e-----------------------------------------------------------------------
B-----------------------------------------------------------------------
G-----------------------------------------------------------------------
D-4-4/6---6-6---4-3-----------------------------------------------------
A---------------------6-4-----------------------------------------------
E-----------------------------------------------------------------------



Part 5

                C                           Dm
e-------8-7-5-----------------------8-8-7-5---5-------------------------
B---5-8-------8-5~--------------5-8---------6-----6---------------------
G-5---------------------------5---------------------7~------------------
D-----------------------------------------------------------------------
A-----------------------------------------------------------------------
E-----------------------------------------------------------------------

                  G7                          C
e--------------5--7~-----------7-7-7-8--7.--5-3~------------------------
B-----5--6--8-----8~-----------8-8-8-10-8.--6-5~------------------------
G-7---------------------------------------------------------------------
D-----------------------------------------------------------------------
A-----------------------------------------------------------------------
E-----------------------------------------------------------------------

                C                                F
e-------8-7-5-3-------3------------------8-8-6-5-------5----------------
B---5-8---------5~------5~-----------5-8---------6~------6~-------------
G-5--------------------------------5------------------------------------
D-----------------------------------------------------------------------
A-----------------------------------------------------------------------
E-----------------------------------------------------------------------

          Fm           C                G7                C
e-------8-10/12-10-8-------------8-7------------------------------------
B-6.-10--------------9-8-------8-----10-8-----10-8----------------------
G----------------------------9---------------------10-9-7---------------
D---------------------------------------------------------10------------
A-----------------------------------------------------------------------
E-----------------------------------------------------------------------

                  G7
e--------8-7------------------------------------------------------------
B------8-----10-8---------8---------------------------------------------
G----9------------10---10---10------------------------------------------
D-10--------------------------------------------------------------------
A-----------------------------------------------------------------------
E-----------------------------------------------------------------------

                               C       G#     C
e-7-7-7.--8.---7.--5.--3.--2.--0-------4------10~-----------------------
B-8-8-8.--10.--8.--6.--5.--4.--1-------4------10~-----------------------
G------------------------------0-------5------9~------------------------
D------------------------------2-------6------10~-----------------------
A------------------------------3----------------------------------------
E-----------------------------------------------------------------------



Chords

   C      G7     Dm     F      Fm     C#    G#7    D#m     F#    F#m
e--0------1------1------1------1------4------4------6------2------2----
B--1------0------3------1------1------6------7------7------2------2----
G--0------0------2------2------1------6------5------8------3------2----
D--2------0------0------3------3------6------4------8------4------4----
A--3------2-------------3------3------4------6------6------4------4----
E---------3-------------1------1-------------4-------------2------2----

  C#7
e--4--------------------------------------------------------------------
B--6--------------------------------------------------------------------
G--4--------------------------------------------------------------------
D--6--------------------------------------------------------------------
A--4--------------------------------------------------------------------
E-----------------------------------------------------------------------