20150301

TRACY CHAPMAN AND ERIC CLAPTON GIVE ME ONE REASON TAB (MAIN GUITAR SOLO)

Great version of Give Me One Reason by Tracy Chapman and Eric Clapton.
Brilliant Eric Clapton solo around 2:10.
See the TAB under the video.


ERIC CLAPTON GIVE ME ONE REASON SOLO TAB

PDF >>

Solo ~ 2:13

e-----------------------------------------------------------------------
B-------10.--12.--12(14)-10'--------------------------------------------
G-/11--------------------------11~--------------------------------------
D-----------------------------------------------------------------------
A-----------------------------------------------------------------------
E-----------------------------------------------------------------------


e-----------------------------------------------------------------------
B-12(14)--------------------12(14)--------------------------------------
G-----------------------------------------------------------------------
D-----------------------------------------------------------------------
A-----------------------------------------------------------------------
E-----------------------------------------------------------------------


e-----------------------------------------------------------------------
B-12(14)-------12(14)-------12~----p10----------------10.---------------
G--------------------------------------11---11~-------------------------
D-----------------------------------------------------------------------
A-----------------------------------------------------------------------
E-----------------------------------------------------------------------



e-----------------------------------------------------2---5'------------
B-5p2-5~----p2--------------------------------------2---2---------------
G--------------4-4(6)(4)p2---------2---2---2-4(6)-----------------------
D--------------------------4-2-4-----4---4------------------------------
A-----------------------------------------------------------------------
E-----------------------------------------------------------------------


e-2----------5-7.-7(9).-7~---p5---------5'------------------------------
B---5/7~------------------------7.-7~----------------5p2-2--------------
G----------------------------------------------------------4p2----------
D--------------------------------------------------------------4-4-///--
A-----------------------------------------------------------------------
E-----------------------------------------------------------------------


e-----------------------------------------------------------------------
B----------------10.--12.--(14)-(12)p10---------------------------------
G-------9---11.-------------------------11~-----------------------------
D-/11.------------------------------------------------------------------
A-----------------------------------------------------------------------
E-----------------------------------------------------------------------


e--------12~-12~-12~-12~-12~--------------------------------------------
B-12/14--14~-14~-14~-14~-14~-12p10----10~-------------------------------
G---------------------------------11---------11p9-----9h11-9.-----------
D------------------------------------------------11.----------11\9p7----
A-------------------------------------------------------------------9---
E-----------------------------------------------------------------------


e---------------------------2.------------------------------------------
B---------------------------2.------------------------------------------
G-----------------------------------------------------------------------
D-7--7'-----------------------------------------------------------------
A--------9---7'---///-\\\-----------------------------------------------
E----------9------------------------------------------------------------