20150406

ERIC CLAPTON TOP 10 LIVE LAYLA SOLOS TAB (SOLO #3)

Here we go ... the TOP 10 live Layla solos by sir Eric Clapton.
Solo #3 starts about 9:05 in the video.
See the TAB below.



ERIC CLAPTON TOP 10 LAYLA SOLOS TAB

PDF >>

Solo #3

e-----------------------------------------------------------------------
B----15~---15~---15~---15~---17-(18)-17~---15---------------------------
G---------------------------------------------17-14~-----\\\---///------
D-----------------------------------------------------------------------
A-----------------------------------------------------------------------
E-----------------------------------------------------------------------


e-----------------------------------------------------------------------
B----18(22)--------(18)-15.-15~-------15-18-15--18-15--18-15--18-15-----
G-----------------------------------17--------17-----17-----17-----17---
D-----------------------------------------------------------------------
A-----------------------------------------------------------------------
E-----------------------------------------------------------------------


e-----------------------------------------------------------------------
B-18-15--18-15--18-15--17-15--18-15--17-15--18-15--17-15--17(18)(17)----
G------17-----17-----17-----17-----17-----17-----17-----17--------------
D-----------------------------------------------------------------------
A-----------------------------------------------------------------------
E-----------------------------------------------------------------------




e-------------------------------------------------------------------15.-
B-p15.-15~------15-17(18)(17)------15-15--15-17.-15~-----15.-18(20)-----
G-------------17------------------------17------------------------------
D-----------------------------------------------------------------------
A-----------------------------------------------------------------------
E-----------------------------------------------------------------------


e-17.---17.--15h17p15-17.--15h17p15-17.--17(20)---17-15-----------------
B------------------------------------------------------18-15--15h18-15~-
G-----------------------------------------------------------17----------
D-----------------------------------------------------------------------
A-----------------------------------------------------------------------
E-----------------------------------------------------------------------



e---------15-17.-15h17.-15-17.-17/20-17-20.-----------------------------
B----15-18--------------------------------------------------------------
G-----------------------------------------------------------------------
D-----------------------------------------------------------------------
A-----------------------------------------------------------------------
E-----------------------------------------------------------------------


e----20(22)---20-17-----------------------------------------------------
B------------------20-18--20--18-20-20(22)-------20(22)-------20(22)----
G-----------------------19--19------------------------------------------
D-----------------------------------------------------------------------
A-----------------------------------------------------------------------
E-----------------------------------------------------------------------


e-----------------------------------------------------------------------
B----20(22)------20(22)---(20)---18h20-20~------------------------------
G-----------------------------------------------------------------------
D-----------------------------------------------------------------------
A-----------------------------------------------------------------------
E-----------------------------------------------------------------------


e-----------------------------------------------------------------------
B----18--18-20-(22)(20)p18-20~----------18-20(22)(20)p18-20~------------
G------19--------------------------17-19--------------------------------
D-----------------------------------------------------------------------
A-----------------------------------------------------------------------
E-----------------------------------------------------------------------


e------------------------------------------------20---------------------
B----18--18-20-(22)(20)p18-20~---18--18-20(22)--------20(22)------------
G------19--------------------------19-----------------------------------
D-----------------------------------------------------------------------
A-----------------------------------------------------------------------
E-----------------------------------------------------------------------


e-----------------------------------------------------------------------
B----20(22)---20-18-----20(22).-20.-18.---------------------------------
G------------------19.------------------19~----17----17h19~-------------
D-------------------------------------------------19--------------------
A-----------------------------------------------------------------------
E-----------------------------------------------------------------------


e-----------------------------------------------------------------------
B----17--17-18-17--17---------------------------------------------------
G------19--------19--19-17h19p17--19--17--------------------------------
D-------------------------------19--19--19\17p15--17--------------------
A-----------------------------------------------17--17-\\\--------------
E-----------------------------------------------------------------------


e-----------------------------------------------------------------------
B-----------------------------------------------------------------------
G----------------------10'----------------------------------------------
D------------10---12--------12~-----------------------------------------
A---///-12--------------------------------------------------------------
E-----------------------------------------------------------------------


e------10h13p10--10h13p10--13p10--10h13p10--1010h13p10--1010h13p10------
B-10h13--------13--------13-----13--------13----------13----------13----
G-----------------------------------------------------------------------
D-----------------------------------------------------------------------
A-----------------------------------------------------------------------
E-----------------------------------------------------------------------


e-1010h13p10--1010h13/15------------------------------------------------
B-----------13----------------------------------------------------------
G-----------------------------------------------------------------------
D-----------------------------------------------------------------------
A-----------------------------------------------------------------------
E-----------------------------------------------------------------------


e-15151515151515/171717171717/202020202020/22-22-22-22-22.--------------
B-----------------------------------------------------------------------
G-----------------------------------------------------------------------
D-----------------------------------------------------------------------
A-----------------------------------------------------------------------
E-----------------------------------------------------------------------


e----10-----------------------------------------------------------------
B---------13---10-------------------------------------------------------
G-------------------12---10.--------------------------------------------
D-----------------------------------------------------------------------
A-----------------------------------------------------------------------
E-----------------------------------------------------------------------


e------10h13p10--10~-------13(15)----13~------12------------------------
B-10h13--------13-------------------------------------13-------15-\-----
G-----------------------------------------------------------------------
D-----------------------------------------------------------------------
A-----------------------------------------------------------------------
E-----------------------------------------------------------------------


e------10h13p10--10~-------15(17)----15~------12------------------------
B-10h13--------13-------------------------------------13----------------
G--------------------------------------------------------------14~------
D-----------------------------------------------------------------------
A-----------------------------------------------------------------------
E-----------------------------------------------------------------------


e------10h13p10--10~-------13(15)----13~------12------------------------
B-10h13--------13-------------------------------------------------------
G-----------------------------------------------------------------------
D-----------------------------------------------------------------------
A-----------------------------------------------------------------------
E-----------------------------------------------------------------------