20150418

SAY CHANCE GRAVITY TAB (JOHN MAYER SONG)


Great acoustic cover of John Mayer's Gravity by Say Chance (Kelly, Maddie & Taylor)
Awesome guitar playing by Kelly Rosenthal. Standard tuning & CAPO on 3rd.
See the TAB under the video.



SAY CHANCE GRAVITY TAB

PDF >>

Intro

e-----------------------------------------------------------------------
B---3-----------3---------3-----3---------3-----3-----------------------
G---4-----------2h4-------4h5---5p4-------2h4---4p2---------------------
D---5---------------------5-----5---------------------5-----------------
A-----------------------------------------------------------------------
E---3---------3---------3---------------3-------------------------------


e-----------------------------------------------------------------------
B-----------------------------------------------------------------------
G---5---5-------5---5---5---5---5-------5---5---------------------------
D---5---5-------5---5h7-5h7-5---5-------5h7-5---5.--0-------------------
A---5h7-------7-5h7---------5h7-------7-----7---5.----------------------
E-----------------------------------------------------------------------


e---------------5/7---3------------------------------------------------
B---3---------------------3---3---------------3-3-----3----------------
G---4-----------5/7---4---2h4-2h4-------4-----5-4p2---2----------------
D---5-----------------------------------------------5------------------
A----------------------------------------------------------------------
E---3---------3---------3-------------------3--------------------------



e-----------------------------------------------------------------------
B-----------------------------------------------------------------------
G---5---5-------5---5---5---5---5-------5---5---------------------------
D---5---5-------5---5h7-5h7-5---5-------5h7-5---5.--0-------------------
A---5h7-------7-5h7---------5h7-------7-----7---5.----------------------
E-----------------------------------------------------------------------



Verse 1

e-----------------------------------------------------------------------
B---3-----------3-------------------------------------------------------
G---4-----------4-------4h5-5p4-----------4h5-5p4-----------------------
D---5-----------5-------5---5-------------5---5-----5---0---------------
A-----------------------------------------------------------------------
E---3---------3-------3-----3-----------3-------------------------------


e-----------------------------------------------------------------------
B-----------------------------------------------------------------------
G---5---5-------5---5---5---5---5-------5---5---------------------------
D---5---5-------5---5h7-5h7-5---5-------5h7-5---5.--0-------------------
A---5h7-------7-5h7---------5h7-------7-----7---5.----------------------
E-----------------------------------------------------------------------


e-----------------------------------------------------------------------
B---3-----------3---3-----3---3---------------3-3-----3-----------------
G---4-----------2h4-4p2---2---2h4-------4-----5-4p2---2-----------------
D---5-------------------5---------------------------5---0---------------
A-----------------------------------------------------------------------
E---3---------3-------------3---------------3---------------------------


e-----------------------------------------------------------------------
B-----------------------------------------------------------------------
G---5---5-------5---5---5---5---5-------5---5---------------------------
D---5---5-------5---5h7-5h7-5---5-------5h7-5-----5---------------------
A---5h7-------7-5h7---------5h7-------7---------5---5-------------------
E-----------------------------------------------------------------------



Chorus 1

e---------------------5-----------------------------5-------------------
B---------------8---------8-----8-------------8---------8-----8---------
G---------5-----------------5-----------5---------5-------5-------------
D-------7-----------7-----------------7-----7---------------------------
A---0---------0-------------------0-------------------------------------
E-----------------------------------------------------------------------


e-----------------------------------------------------------------------
B---------------7--------------7-------------7---------------7----------
G---------5-----------5----5-----------5-----------5-----5--------------
D-------4----------------4-----------4-----------------4----------------
A--/5---------5------------------5---------5----------------------------
E-----------------------------------------------------------------------


e-----------------------------------------------------------------------
B---------------8-------------8-------------6---------------------------
G---------7---------7-----7------------5----7---7-----7---0-------------
D-------8---------------8------------5--------------5-------------------
A-------------------------------/6---------6----------------------------
E--/6---------6---------------------------------------------------------


e-----------------------------------------------------------------------
B---------------7-----------7-------------------------------------------
G---------5-----5---5-------5-------------------------------------------
D-------4-------------4-------------------------------------------------
A--/5---------5-----------5---------------------------------------------
E------------------------------------------0---2---2--------------------



Verse 2

e-----------------------------------------------------------------------
B---3-----------3----3--3-3--3-3----3--3-3--3-3----3--3-3---------------
G---4-----------4----4--4-4--5-4----4--4-4--4-4----4--4-4---------------
D---5-----------5----5--5-5--5-5----5--5-5--5-5----5--5-5---------------
A----------------------------------------------------------0------------
E---3---------3------3--3-3--3-3----3--3-3--3-3----3--3-3---------------


e-----------------------------------------------------------------------
B--------------------------------------------------------0---0----------
G---------5---5-5---5-5-5-5-5-----------5---5-----5---5--0---0----------
D---5-----5---5-5---5-5-5-5-5h7---7p5---5---5-----5---5--0---0----------
A---5h7-7-------7---7-7-7-7-----------7-----7-----7---7-----------------
E-----------------------------------------0-----------------------------


e-----------------------------------------------------------------------
B---3----3--3-3--3-3----3--3-3--3-3--5-3--5-3--3-3----3--3-3--3---------
G---4----4--4-4--4-4----4--4-4--4-4--4-4--4-4--4-4----4--4-4--4---------
D---5----5--5-5--5-5----5--5-5--5-5--5-5--5-5--5-5----5--5-5--5---------
A-----------------------------------------------------------------------
E---3----3--3-3--3-3----3--3-3--3-3--3-3--3-3--3-3----3--3-3--3---------


e---------------------5-------------------------------------------------
B---------------8---8-----8-7-----7-----5---5-5-5-5---------------------
G---------5-----5---5---5---5---5-----5-5---5-5-5-5---------------------
D---5-----5-----5---5---5---5---5---5---5---5-5-5-5---------------------
A---5h7-7-----7---------------------------------------------------------
E-----------------------------------------------------------------------



Chorus 2

e----------------5---5-5---5-5---5---------------5---5-5---5-5---5------
B----------------8---8-8---8-8---8---------------8---8-8---8-8---8------
G----------5-----5---5-5---5-5---5---------5-----5---5-5---5-5---5------
D--------7-----7-------7---7-7---7-------7-----7-------7---7-7---7------
A--0-------------------------------0------------------------------------
E-----------------------------------------------------------------------


e-----------------------------------------------------------------------
B---------------7-----7---7-7---7--------------7-----7---7-7---7--------
G----------5----5-----5---5-5---5---------5----5-----5---5-5---5--------
D--------4----4-------4---4-4---4-------4----4-------4---4-4---4--------
A--/5-----------------5---5-5---5-5------------------5---5-5---5--------
E-----------------------------------------------------------------------


e-----------------6---6---6-6---6---------------------------------------
B-----------------8---8---8-8---8----------6----6-----6---6-6---6-------
G-----------7-----7---7---7-7---7----------5----7-----7---7-7---7-------
D---------8-8-----8---8---8-8---8--------5----5-------5---5-5---5-------
A----------------------------------/6---------6-------6---6-6---6-------
E--/6-----------6-----6---6-6---6---------------------------------------


e----------------------------------------2---2---7-----7-----7---x------
B---------------7-----7---7-7---7-7---7--1---1---3-----3-----3---x------
G----------5----5-----5---5-5---5-5---5--2---2---5-----5-----5---x------
D--------4----4-------4---4-4---4-4---4--0---0---0-----0-----0---x------
A--/5---------5-------5---5-5---5-5---5---------------------------------
E-----------------------------------------------------------------------



Solo

e-----------------------------------------------------------------------
B--3-----3-----3---5-3---5-3---5-3-----------------8---8----------------
G--4-----4-----4---4-4---4-4---4-4-----------------7h9-7--------7-------
D--5-----5-----5---5-5---5-5---5-5---------------7-------9-7----7h9-7\--
A------------------------------------------5-7/9-------------10---------
E--3---------3-------3---3-3---3-3---3-5/7------------------------------


e-------------------------------------------------12-\-x----------------
B----------5\-x------8~--8h10\--/8~---------x---x------x-/12----10-x----
G----------5\---/9--------------/9~---------x---x-12-\-x----------------
D-------5------------------------------------------------/12----10-x----
A--/7-------------------------------------------------------------------
E-----------------------------------------------------------------------


e-----------------------------------------------------------------------
B---3-------3-x-8-x--------------------3--------------------------------
G---4-------4-x-7-x--------------------4--------------------------------
D---5-------5-x-9-x------5-5h7p5-------5--------------------------------
A-------------------/7-----------7-----------5-5h7p5--------------------
E---3-------3-x--------------------3-----5/7---------7------------------


e-----------------------------------------------------------------------
B-----------------------------------------------------------------------
G-------7--------------------5--5----------5--5-------------------------
D-------7--------------------5--5h7\-------5--5h7\----------------------
A---7/9---9\7p5---5---7-/7------------/7--------------------------------
E---------------7-------------------------------------------------------


e-----------------------------------------------------------------------
B--------------------------------5--------------------------------------
G--------5-5---5-------5h7p5-----5-----5--------------------------------
D--------5-5h7---7---7-------7---------7--------------------------------
A---/7------------------------------------------------------------------
E----------------------------------0------------------------------------



Chorus 3

e----------------5---5-5---5-5---5--5-----5-5-----5-5---5-5---5-5---5---
B----------------8---8-8---8-8---8--8-----8-8-----8-8---8-8---8-8---8---
G----------5-----5---5-5---5-5---5--5-----5-5-----5-5---5-5---5-5---5---
D--------7-7---7-------7---7-7---7--7-----7-7-----7-7---7-7---7-7---7---
A--0--------------------------------0-----------------------------------
E-----------------------------------------------------------------------


e-----------------------------------------------------------------------
B---------------7-----7---7-7---7--------------7-----7---7-7---7--------
G----------5----5-----5---5-5---5---------5----5-----5---5-5---5--------
D--------4----4-------4---4-4---4-------4----4-------4---4-4---4--------
A--/5-----------------5---5-5---5--5-----------------5---5-5---5--------
E-----------------------------------------------------------------------


e-----------------6---6---6-6---6---------------------------------------
B-----------------8---8---8-8---8----------6----6-----6---6-6---6-------
G-----------7-----7---7---7-7---7----------5----7-----7---7-7---7-------
D---------8-8-----8---8---8-8---8--------5----5-------5---5-5---5-------
A----------------------------------/6---------6-------6---6-6---6-------
E--/6-----------6-----6---6-6---6---------------------------------------


e-----------------------------------------------------------------------
B-----------------7-----7---7-7---7-7---7-7---7-7---7---7---x-----------
G-----------5-----5-----5---5-5---5-5---5-5---5-5---5---5---x-----------
D---------4-4---4-------4---4-4---4-4---4-4---4-4---4---4---x-----------
A---5-----------5-------5---5-5---5-5---5-5---5-5---5---5---x-----------
E-----------------------------------------------------------------------



verse 3

e-----------------------------------------------------------------------
B---3----3--3-3--3-3----3--3-3--3-3----3--3-3--3-3.---------------------
G---4----4--4-4--4-4----4--4-4--4-4----4--4-4--4-4.---------------------
D---5----5--5-5--5-5----5--5-5--5-5----5--5-5--5-5.---------------------
A-----------------------------------------------------------------------
E---3----3--3-3--3-3----3--3-3--3-3----3--3-3--3-3.---------------------


e-----------------------------------------------------------------------
B---3----3--3-3--3-3----3--3-3--3-3----3--3-3--3-3----3--3-3--3---------
G---4----4--4-4--4-2----2--2-2--2-4----4--4-4--4-2----2--2-2--2---------
D---2----2--2-2--2-2----2--2-2--2-2----2--2-2--2-2----2--2-2--2---------
A---3----3--3-3--3-3----3--3-3--3-3----3--3-3--3-3----3--3-3--3---------
E-----------------------------------------------------------------------


e-----------------------------------------------------------------------
B---3----3--3-3--3-3--5-3--5-3--3-3----3--3-3--3-3----3--3-3--3---------
G---4----4--4-4--4-4--4-4--4-4--4-4----4--4-4--4-4----4--4-4--4---------
D---5----5--5-5--5-5--5-5--5-5--5-5----5--5-5--5-5----5--5-5--5---------
A-----------------------------------------------------------------------
E---3----3--3-3--3-3--3-3--3-3--3-3----3--3-3--3-3----3--3-3--3---------


e-----------------------------------------------------------------------
B---3----3--3-3--3-3----3--3-3--3-3----3--3-3--3-3----3--3-3--3---------
G---2----2--2-2--2-4----4--4-4--4-2----2--2-2--2-2----2--2-2--2---------
D---2----2--2-2--2-2----2--2-2--2-2----2--2-2--2-2----2--2-2--2---------
A---3----3--3-3--3-3----3--3-3--3-3----3--3-3--3-3----3--3-3--3---------
E-----------------------------------------------------------------------


e-----------------------------------------------------------------------
B---3----3--3-3--3-3----3--3-3--3-3----3--3-3--3-3----3--3-3--3---------
G---4----4--4-4--5-4----4--4-4--4-4----4--4-4--4-4----4--4-4--4---------
D---5----5--5-5--5-5----5--5-5--5-5----5--5-5--5-5----5--5-5--5---------
A-----------------------------------------------------------------------
E---3----3--3-3--3-3----3--3-3--3-3----3--3-3--3-3----3--3-3--3---------


e-----------------------------------------------------------------------
B---3----3--3-3--3-3----3--3-3--3-3----3--3-3--3-3----3--3-3--3---------
G---2----2--2-2--2-2----2--2-2--2-2----2--2-2--2-2----2--2-2--2---------
D---2----2--2-2--2-2----2--2-2--2-2----2--2-2--2-2----2--2-2--2---------
A---3----3--3-3--3-3----3--3-3--3-3----3--3-3--3-3----3--3-3--3---------
E-----------------------------------------------------------------------


Oooooh ...

e-----------------------------------------------------------------------
B---3----3--3-3--3-3----3--3-3--3-3----3--3-3--3-3----3--3-3--3---------
G---4----4--4-4--4-4----4--4-4--4-4----4--4-4--4-4----4--4-4--4---------
D---5----5--5-5--5-5----5--5-5--5-5----5--5-5--5-5----5--5-5--5---------
A-----------------------------------------------------------------------
E---3----3--3-3--3-3----3--3-3--3-3----3--3-3--3-3----3--3-3--3---------


e-----------------------------------------------------------------------
B---3----3--3-3--3-3----3--3-3--3-3----3--3-3--3-3----3--3-3--3---------
G---2----2--2-2--2-2----2--2-2--2-2----2--2-2--2-2----2--2-2--2---------
D---2----2--2-2--2-2----2--2-2--2-2----2--2-2--2-2----2--2-2--2---------
A---3----3--3-3--3-3----3--3-3--3-3----3--3-3--3-3----3--3-3--3---------
E-----------------------------------------------------------------------


e-----------------------------------------------------------------------
B---3----3--3-3--3-3----3--3-3--3-3----3--3-3--3-3----3--3-3--3---------
G---4----4--4-4--4-4----4--4-4--4-4----4--4-4--4-4----4--4-4--4---------
D---5----5--5-5--5-5----5--5-5--5-5----5--5-5--5-5----5--5-5--5---------
A-----------------------------------------------------------------------
E---3----3--3-3--3-3----3--3-3--3-3----3--3-3--3-3----3--3-3--3---------


e-----------------------------------------------------------------------
B---3----3--3-3--3-3----3--3-3--3-3----3--3-3--3-3----3--3-3--3---------
G---2----2--2-2--2-2----2--2-2--2-2----2--2-2--2-2----2--2-2--2---------
D---2----2--2-2--2-2----2--2-2--2-2----2--2-2--2-2----2--2-2--2---------
A---3----3--3-3--3-3----3--3-3--3-3----3--3-3--3-3----3--3-3--3---------
E-----------------------------------------------------------------------


e-----------------------------------------------------------------------
B---3----3--3-3--3-3----3--3-3--3-3----3--3-3--3-3----3--3-3--3---------
G---4----4--4-4--4-4----4--4-4--4-4----4--4-4--4-4----4--4-4--4---------
D---5----5--5-5--5-5----5--5-5--5-5----5--5-5--5-5----5--5-5--5---------
A-----------------------------------------------------------------------
E---3----3--3-3--3-3----3--3-3--3-3----3--3-3--3-3----3--3-3--3---------


e-----------------------------------------------------------------------
B---3----3--3-3--3-3----3--3-3--3-3----3--3-3--3-3----3--3-3--3---------
G---2----2--2-2--2-2----2--2-2--2-2----2--2-2--2-2----2--2-2--2---------
D---2----2--2-2--2-2----2--2-2--2-2----2--2-2--2-2----2--2-2--2---------
A---3----3--3-3--3-3----3--3-3--3-3----3--3-3--3-3----3--3-3--3---------
E-----------------------------------------------------------------------


e-----------------------------------------------------------------------
B---3----3--3-3--3-3----3--3-3--3-3----3--3-3--3-3----3--3-3--3---------
G---4----4--4-4--4-4----4--4-4--4-4----4--4-4--4-4----4--4-4--4---------
D---5----5--5-5--5-5----5--5-5--5-5----5--5-5--5-5----5--5-5--5---------
A-----------------------------------------------------------------------
E---3----3--3-3--3-3----3--3-3--3-3----3--3-3--3-3----3--3-3--3---------


e-----------------------------------------------------------------------
B---3----3--3-3--3-3----3--3-3--3-3----3--3-3--3-3----3--3-3--3---------
G---2----2--2-2--2-2----2--2-2--2-2----2--2-2--2-2----2--2-2--2---------
D---2----2--2-2--2-2----2--2-2--2-2----2--2-2--2-2----2--2-2--2---------
A---3----3--3-3--3-3----3--3-3--3-3----3--3-3--3-3----3--3-3--3---------
E-----------------------------------------------------------------------


e-----------------------------------------------------------------------
B---3----3--3-3--3-3----3--3-3--3-3----3--3-3--3-3----3--3-3--3---------
G---4----4--4-4--4-4----4--4-4--4-4----4--4-4--4-4----4--4-4--4---------
D---5----5--5-5--5-5----5--5-5--5-5----5--5-5--5-5----5--5-5--5---------
A-----------------------------------------------------------------------
E---3----3--3-3--3-3----3--3-3--3-3----3--3-3--3-3----3--3-3--3---------


e-----------------------------------------------------------------------
B---3----3--3-3--3-3----3--3-3--3-3----3--3-3--3-3----3--3-3--3---------
G---2----2--2-2--2-2----2--2-2--2-2----2--2-2--2-2----2--2-2--2---------
D---2----2--2-2--2-2----2--2-2--2-2----2--2-2--2-2----2--2-2--2---------
A---3----3--3-3--3-3----3--3-3--3-3----3--3-3--3-3----3--3-3--3---------
E-----------------------------------------------------------------------


e-----------------------------------------------------------------------
B---3----3--3-3--3-3----3--3-3--3-3----3--3-3--3-3----3--3-3--3---------
G---4----4--4-4--4-4----4--4-4--4-4----4--4-4--4-4----4--4-4--4---------
D---5----5--5-5--5-5----5--5-5--5-5----5--5-5--5-5----5--5-5--5---------
A-----------------------------------------------------------------------
E---3----3--3-3--3-3----3--3-3--3-3----3--3-3--3-3----3--3-3--3---------


e-----------------------------------------------------------------------
B---3-------------------------------------------------------------------
G---2-------------------------------------------------------------------
D---2-------------------------------------------------------------------
A---3-------------------------------------------------------------------
E-----------------------------------------------------------------------