20150520

HANSEL PETHIG HALLELUJAH TAB (FINGERSTYLE COVER OF LEONARD COHEN'S SONG)

Hansel Pethig plays a nice fingerstyle guitar cover of Leonard Cohen's Hallelujah.
He is using standard tuning with CAPO on the 2nd.
See the TAB under the video.



HANSEL PETHIG HALLELUJAH TAB

GP5 + GP6 + PDF >>

Part 1                       CAPO on the 2nd

e---------0-----0-----------0-------------------------------------------
B---0---3-----------------------3-0-----0-------------------------------
G---------3-----3-----------------0-----0-------------------------------
D---------------------------------2-----2-------------------------------
A-----------------------------------------------------------------------
E---------------------------------------------0-------------------------


e---------0-----0-----------0-------------------------------------------
B---0---3---------------0-------3-----0-----0-----0-----0---------------
G---------3-----3---------3---3-----0-----0-----0-----0-----------------
D---------------------2-----2-----2-----2-----2-------------------------
A-----------------------------------------------------------------------
E---------------------------------------------------0-------------------


e-----------------------------------------------------------------------
B-----------------------------------------------------------------------
G-------0-----0-----0-----0-----0-----0-----0-----0---------------------
D-----2-----2-----2-----2-----2-----2-----2-----2-----------------------
A---1-----1-----1-----1-----2-----2-----2-----2-------------------------
E-----------------------------------------------------------------------



e-----------------------------------------------------------------------
B-----------------------------------------------------------------------
G-----3-3---3-3---3-3---3-3---0-0---0-----0-----0-----------------------
D-----2-2---2-2---2-2---2-2---1-1---1-------1-----0---------------------
A---1-----1-----1-----1-----2-----2---2-0-----0-------------------------
E-----------------------------------------------------------------------


e---------------------------------0-----2-------------------------------
B-----1-1---1-1---1-1---1-1-----3-----3-3-------------------------------
G-----0-0---0-0---0-0---0-0---2-----2---3-------------------------------
D-----2-2---2-2---2-2---2-2-0-----------0-------------------------------
A-----------------------------------------------------------------------
E---3-----3-----3-----3-------------------------------------------------


Part 2

e---3-----3-----------3-----------3-----------3-------------------------
B---3-----3-----------3-----------3-----------3---0---------------------
G---0---0---0-------0-----------0---0-------0---0-----------------------
D-----0-----------2-----------0-----------2-----------------------------
A-----------------------------------------------------------------------
E---3---------2-0-------0-2-3---------2-0-------------------------------




DOWNLOAD THE COMPLETE TAB HERE





  • click 'Buy Now' and send $6  (or 'Add to Cart' if you want to buy more tabs)
  • add your e-mail address
  • you will get a confirmation e-mail with your download links (in a few seconds)
  • download the full Guitar Pro 6 tab + GP5 + PDF
  • then start to learn the full song - that's all ...

IF YOU DIDN'T GET YOUR DOWNLOAD LINK, PLEASE CONTACT US HERE >>

SEND YOUR GUITAR TAB REQUEST HERE >>
MORE ON GUITAR TABS A-Z >>

Guitar Pro: a complete workshop for guitarists at an affordable price