20150515

MELVIN CHUNG SARINANDE TAB


Melvin Chung plays an instrumental cover of Sarinande with a Fender Stratocaster.
Beautiful indonesian song. Download the GP5, GP6 and PDF files below.



MELVIN CHUNG SARINANDE TAB

GP5 + GP6 + PDF >>

Chords

    A     E     D     A7

e---0-----0-----2-----3-------------------------------------------------
B---2-----0-----3-----2-------------------------------------------------
G---2-----1-----2-----2-------------------------------------------------
D---2-----2-----0-----2-------------------------------------------------
A---0-----2-----------0-------------------------------------------------
E---------0-------------------------------------------------------------


 

Part 1             A

e----------------4-5-------------8-9-----------16-17--------------------
B-----------------------------------------------------------------------
G-----------------------------------------------------------------------
D-----------------------------------------------------------------------
A-----------------------------------------------------------------------
E-----------------------------------------------------------------------


Part 2
                 A               E                     A

e-----------------------------------------------------------------------
B-----------------------------------------------------------------------
G-------2---4-/6-6---------5-6-7-4---------------3-4-6-2----------------
D---2-------------------------------------------------------------------
A-----------------------------------------------------------------------
E-----------------------------------------------------------------------

                  A              E               A        A7

e-----------------------------------------------------------------------
B----------------------------7\--3-----2-3-----5-3-2--------------------
G---4-/6-6---7-/9-9-----------------------------------------------------
D-----------------------------------------------------------------------
A-----------------------------------------------------------------------
E-----------------------------------------------------------------------



                  D                                A

e-----------------------------------------------------------------------
B---------------5/7-----------9-10-----10-10--9--7-7-\5-5---------------
G-----------------------------------------------------------------------
D---7---6---7-----------------------------------------------------------
A-----------------------------------------------------------------------
E-----------------------------------------------------------------------

                E                                 A              A7

e-----------5-5-4-------------------------------------------------------
B-------5-5---------------7---5-----------------5-----------------------
G---6-6-------------------------4-----6-7---7-----6---------------------
D----------------------------------------------------------7---6-5------
A-----------------------------------------------------------------------
E-----------------------------------------------------------------------

                 D                                 A

e-----------------------------------------------------------------------
B---------------5/7-----------9-10-----10-10--9--7-7-\5-5---------------
G-----------------------------------------------------------------------
D---7---6---7-----------------------------------------------------------
A-----------------------------------------------------------------------
E-----------------------------------------------------------------------

                E                                 A

e-----------5-5-4-------------------------------------------------------
B-------5-5---------------7---5-----------------------------------------
G---6-6-------------------------4-----6-7---7---1-2---------------------
D-----------------------------------------------------------------------
A-----------------------------------------------------------------------
E-----------------------------------------------------------------------




DOWNLOAD THE COMPLETE TAB HERE





  • click 'Buy Now' and send $6  (or 'Add to Cart' if you want to buy more tabs)
  • add your e-mail address
  • you will get a confirmation e-mail with your download links (in a few seconds)
  • download the full Guitar Pro 6 tab + GP5 + PDF
  • then start to learn the full song - that's all ...

IF YOU DIDN'T GET YOUR DOWNLOAD LINK, PLEASE CONTACT US HERE >>

SEND YOUR GUITAR TAB REQUEST HERE >>
MORE ON GUITAR TABS A-Z >>

Guitar Pro: a complete workshop for guitarists at an affordable price