20150507

SWORD ART ONLINE II ED 3 SHIRUSHI TAB (FINGERSTYLE COVER BY JASON SZETO)

Jason Szeto's fingerstyle acoustic guitar cover of Shirushi (Sword Art Online II ED 3)
Original video title: Sword Art Online II ED 3 (Shirushi) acoustic guitar fingerstyle solo.
He is using standard tuning with CAPO on 1st.
See the TAB under the video.


SHIRUSHI TAB

GP5 + GP6 + PDF >> 

Part 1

e-----------------------------------------------------------------------
B---3-------------------------------3-----------------------------------
G---0-----0-----1/2---------0---0h2-2-----2---0-------0-----------------
D---2---2-------0---------1---1---------0-----2----/4---4-2-0-----------
A---3-------------------------------2---------2-------------------------
E---------------------------------------------0-------------------------

    T
e-----------7---------------12-\----10----------------------------------
B-------10------0---10--------------10----------0-----------------------
G-----------------------------------0-------0h2-------------------------
D-------------------0-------------------------------0-------------------
A-----------------------------------------------------------------------
E---9-------------------------------8-----------------------------------


e-------------------10--------------------------------------------------
B-------------------10--------------------------------------------------
G---1/2-------------0---------------------------------------------------
D-----------------------------------------------------------------------
A-----------------------------------------------------------------------
E------------------------------------------------x---0------------------



Part 2

e-----------------------------------------------------------------------
B-------3-3-3---3-3-3---1-0-----------------------0-0h1-0-----0---------
G-------0-----------------------0-2-------0-2-0-2---------2-----2-------
D-------0-----------0---------------0-----------------------------------
A---------------------------------------------------2-------------------
E---3-------------------------------------------------------------------


e---------------3---2---------------------------------------------------
B-----------------------3-3-----0-------------0-----------------0-1-----
G---0-------0-----------------------2-----0h2---2-0-----0-0-0-2---------
D---2---2---------------------------------------------------------------
A---2---------------2---------------0-----------------------------------
E---0-------------------------------------------------------------------


e-------------------------------------------3-----2-3-------------------
B---3-----------------------------0-1-3---3---------3---0---------------
G-------0-0-----1/2-------2-0-0-2-------------------0-------2-0-0-------
D-------------0-0-------------------------------------------------------
A---3---------------------------------2---------------------------------
E---------------------------------------------------0-------------------




DOWNLOAD THIS TAB IN GUITAR PRO



  • click 'Free Download'
  • add your e-mail address
  • you will get an e-mail with your download links (in a few seconds)
  • download the Guitar Pro 6 tab + GP5 + PDF for free
  • and that's all ...


Guitar Pro: a complete workshop for guitarists at an affordable price