20150501

THE RYDERS SWAY TAB (LIVE IN VERDEN 2014)


The Ryders play an instrumental version of Sway - live in Verden, 2014.
Brilliant sound with the good old Fender Stratocaster.
See the TAB of the lead guitar parts and the chords under the video.



THE RYDERS SWAY TAB

PDF >>

Part 1

e-----------------------------------------------------------------------
B-----------------------------------------------------------------------
G-10-10--9--9-7-7-6.----------------------------------------------------
D-12-12-10-10-8-8-7.----------------------------------------------------
A-----------------------------------------------------------------------
E-----------------------------------------------------------------------

              Gm    A         Gm    A         Dm
e-5-5-5-5-5-5-6---5-----------6---5-------5---5-------------------------
B-------------------8~--------------8~------8-----8-6~------------------
G-----------------------------------------------------------------------
D-----------------------------------------------------------------------
A-----------------------------------------------------------------------
E-----------------------------------------------------------------------

                Gm    A         Gm    A         Dm
e-------------------------------------------5---5-----------------------
B-6.----6---6---8.--6-5~----8-6-8.--6-5~----6-5-6---5h6p5---------------
G-----7---7---7-7.--7-6~--------7.--7-6~-----------------7~-------------
D-----------------------------------------------------------------------
A-----------------------------------------------------------------------
E-----------------------------------------------------------------------



                    Gm    A         Gm       A         Dm
e---5.-5.-5.-5.-5-5h6---5-----------6---5h6p5------5---5----------------
B--6----------------------8~-----------------8~------8-----8-6~---------
G-7---------------------------------------------------------------------
D-----------------------------------------------------------------------
A-----------------------------------------------------------------------
E-----------------------------------------------------------------------

                 Gm    A         Gm    A         Dm
e--------------------------------------------5--------------------------
B------6---6---6-8.--6-5~--------8.--6-5~----6p5-6---5h6p5--------------
G-/7-----7---7---7.--7-6~----7-7-7.--7-6~-----------------7~------------
D-----------------------------------------------------------------------
A-----------------------------------------------------------------------
E-----------------------------------------------------------------------



Part 2
                     C  
e-----------------------------------------------------------------------
B-----5-5h6---5h6p5--5---5h6-8~-----------------------------------------
G-7.---------------7----------------------------------------------------
D-----------------------------------------------------------------------
A-----------------------------------------------------------------------
E-----------------------------------------------------------------------

                  F
e---------5-6-8---8----8~-----------------------------------------------
B-5---6-8-----------10--------------------------------------------------
G-----------------------------------------------------------------------
D-----------------------------------------------------------------------
A-----------------------------------------------------------------------
E-----------------------------------------------------------------------

                    A
e---------8---------9.--9----9~-----------------------------------------
B-10.--11---11.--10-------10--------------------------------------------
G-----------------------------------------------------------------------
D-----------------------------------------------------------------------
A-----------------------------------------------------------------------
E-----------------------------------------------------------------------

                   Dm       C    Bb   A 
e---------9--------10.------8.---6.---5.--------------------------------
B-10.--12---12.---------------------------------------------------------
G----------------10-------9----7----6-----------------------------------
D-----------------------------------------------------------------------
A-----------------------------------------------------------------------
E-----------------------------------------------------------------------



Part 3
                  Gm    A         Gm    A         Dm
e-----------------------------------------------------------------------
B-----------------------------------------------------------------------
G-1/2-2-1/2-2-2-2-3---2-0~----3-2-3.--2-0~----2-0-2-22-0----------------
D--------------------------------------------------------3~-------------
A-----------------------------------------------------------------------
E-----------------------------------------------------------------------

                Gm    A         Gm    A         Dm
e-----------------------------------------------------------------------
B-----------------------------------------------------------------------
G---------------------------0---0-0-------------------------------------
D-----3---3---3-5.--3-2~------3-----x-2~----3p2-3-3p2-0~----------------
A-5.----5---5-----------------------------------------------------------
E-----------------------------------------------------------------------

                    Gm    A         Gm    A         Dm
e-----------------------------------------------------------------------
B-----------------------------------------------------------------------
G-1/2.--1/2-2-2-2-2-3---2-0~----3-2-3.--2-0~----2-0-2---0---------------
D---------------------------------------------------------3~------------
A-----------------------------------------------------------------------
E-----------------------------------------------------------------------

                Gm    A         Gm    A         Dm
e-----------------------------------------------------------------------
B-----------------------------------------------------------------------
G---------------------------0---0-0-------------------------------------
D-----3---3---3-5.--3-2~------3-----3-2~----3-2-3---2-0~----------------
A-5.----5---5-----------------------------------------------------------
E-----------------------------------------------------------------------



Part 4
                    C
e-----------------------------------------------------------------------
B-----------------------------------------------------------------------
G---------------------------0~------------------------------------------
D-0.--2-3---2h3p2-0-2---2-3---------------------------------------------
A-----------------------------------------------------------------------
E-----------------------------------------------------------------------

                F
e-----------------------------------------------------------------------
B---------------1---1---1~----------------------------------------------
G-------0---2-3-------2-------------------------------------------------
D-2---3-----------------------------------------------------------------
A-----------------------------------------------------------------------
E-----------------------------------------------------------------------

               A
e-----------------------------------------------------------------------
B-------1------2---2---2~-----------------------------------------------
G-2---3---3.-2-------2--------------------------------------------------
D-----------------------------------------------------------------------
A-----------------------------------------------------------------------
E-----------------------------------------------------------------------

                Dm          C Bb A
e-------------0---------------------------------------------------------
B-------2--3----3~------------------------------------------------------
G-2---4-----------------------------------------------------------------
D-----------------------------------------------------------------------
A-----------------------------------------------------------------------
E-----------------------------------------------------------------------



Solo
                           Gm       A        
e-10-----10-------------------------------------------------------------
B-10--------------------------------------------------------------------
G-10--------13p12p10----10-13p10-10-12~---------------------------------
D--------------------12-------------------------------------------------
A-----------------------------------------------------------------------
E-----------------------------------------------------------------------

        Gm          A               Dm
e-----------------------------------------------------------------------
B----------------------------------------13-13--------------------------
G----10-12/13\12-10-12~----10-12-10-12/14-----14\12p10------------------
D-12--------------------------------------------------12-10-12----------
A-----------------------------------------------------------------------
E-----------------------------------------------------------------------

                  Gm          A          Gm         A           Dm
e-----------------------------------------------------------------------
B-----------------------------12-------------------------------------13~
G--------10-12-10-12h13p10-10-12-----10--13.--12-12-12-10-12-10-12/14---
D---10-12--------------------------12--12-------------------------------
A-12--------------------------------------------------------------------
E-----------------------------------------------------------------------


e-----------------------------------------------------------------------
B-----------------------------------------------------------------------
G----14\12-10-----------------------------------------------------------
D------------12-10-0.---------------------------------------------------
A-----------------------------------------------------------------------
E-----------------------------------------------------------------------

                     Gm     A            Gm     A
e-13.--13'-10-----10-13p10--12~---10--10-13p10--12~---p10--10-----------
B-------------13'---------10--------10--------10---------10-------------
G-----------------------------------------------------------------------
D-----------------------------------------------------------------------
A-----------------------------------------------------------------------
E-----------------------------------------------------------------------

  Dm
e-13p10-10--------------------------------------------------------------
B----------10----10-----------------------------------------------------
G-------------13----12-10-12p10-------------10h12-----------------------
D-------------------------------12----10-12-----------------------------
A----------------------------------12-----------------------------------
E-----------------------------------------------------------------------

  Gm          A              Gm              A
e---------------------------------10------------------------------------
B----------10--------------------------------12p10----------------------
G-12/13\12-10-12~------10-12-12/13--13\12-10-12p10----------------------
D-------------------12-----------------------------12-10----------------
A-----------------------------------------------------------------------
E-----------------------------------------------------------------------

  Dm
e-----------------------------------------------------------------------
B-------10----12p10-----------------------------------------------------
G-------10----12p10-----------------------------------------------------
D-12~------12-------12-10-12.-------------------------------------------
A-----------------------------------------------------------------------
E-----------------------------------------------------------------------



Part 6
                     C  
e-----------------------------------------------------------------------
B-----5-5h6---5h6p5--5---5h6-8~-----------------------------------------
G-7.---------------7----------------------------------------------------
D-----------------------------------------------------------------------
A-----------------------------------------------------------------------
E-----------------------------------------------------------------------

                  F
e---------5-6-8.--8----8~-----------------------------------------------
B-5---6-8-----------10--------------------------------------------------
G-----------------------------------------------------------------------
D-----------------------------------------------------------------------
A-----------------------------------------------------------------------
E-----------------------------------------------------------------------

                    A
e---------8---------9.--9----9~-----------------------------------------
B-10.--11---11.--10-------10--------------------------------------------
G-----------------------------------------------------------------------
D-----------------------------------------------------------------------
A-----------------------------------------------------------------------
E-----------------------------------------------------------------------

                   Dm       C    Bb   A 
e---------9--------10.------8.---6.---5.--------------------------------
B-10.--12---12.---------------------------------------------------------
G----------------10-------9----7----6-----------------------------------
D-----------------------------------------------------------------------
A-----------------------------------------------------------------------
E-----------------------------------------------------------------------



Part 7
                Gm    A         Gm    A         Dm
e-5-5-5-5-5-5-5h6---5-------6-5-6.--5-------5---5-----------------------
B---------------------8~--------------8~------8-----8-6~----------------
G-----------------------------------------------------------------------
D-----------------------------------------------------------------------
A-----------------------------------------------------------------------
E-----------------------------------------------------------------------

                Gm    A          Gm    A         Dm
e--------------------------------------------5---5----------------------
B-/6-----6---6---8.--6-5~--------8.--6-5~----6-5-6---5------------------
G------7---7---7-7.--7-6~----7-7-7.--7-6~--------------7~---------------
D----------------------------7-7----------------------------------------
A-----------------------------------------------------------------------
E-----------------------------------------------------------------------

  Bb              Dm              A
e---------------------------------5-------9-----------------------------
B-6---5-----------6---5-----------5-----------10.-----------------------
G-7-----7~--------7-----7~--------6-------------------------------------
D-8---------------7---------------7-------------------------------------
A-----------------------------------------------------------------------
E-----------------------------------------------------------------------

  Dm        C   Bb  D
e-----------8.--6.--5~--------------------------------------------------
B-10--------8.--6.--7~--------------------------------------------------
G-10--------9.--7.--7~--------------------------------------------------
D-12--------------------------------------------------------------------
A-----------------------------------------------------------------------
E-----------------------------------------------------------------------



Chords

  Gm      A       Dm       C        Bb       F       D
e-3-------5-------5--------0--------1--------1-------5------------------
B-3-------5-------6--------1--------3--------1-------7------------------
G-3-------6-------7--------0--------3--------2-------7------------------
D-5-------7-------7--------2--------3--------3-------7------------------
A-5-------7-------5--------3--------1--------3-------5------------------
E-3-------5----------------------------------1--------------------------