20150602

IMAGINE DRAGONS DEMONS TAB (INSTRUMENTAL GUITAR COVER BY ADAM BERGENDAHL)

Adam Bergendahl plays an instrumental guitar cover of Demons by Imagine Dragons.
Adam is using a nice Epiphone Les Paul guitar.
See the TAB under the video.



IMAGINE DRAGONS DEMONS INSTRUMENTAL TAB

GP5 + GP6 + PDF >>

Part 1

e-----------------------------------------------------------------------
B-----------------------------------------------------------------------
G-----------------------------------------------------------------------
D----8--------------/8~--------------/10~----5-h6p5-------6.--6.--6~----
A--6------\8---8p6-6-------\8---8\6-6---------------8p6-6---------------
E-----------------------------------------------------------------------


e-----------------------------------------------------------------------
B-----------------------------------------------------------------------
G-----------------------------------------------------------------------
D------8~--------------/8~--------------/10~----5h6p5------6.--6.--6~--\
A--6-6-------\8---8\6-6-------\8---8p6-6-------------8p6-6--------------
E-----------------------------------------------------------------------


e-----------------------------------------------------------------------
B-----------------------------------------------------------------------
G-----------------------------------------------------------------------
D--8-8-8-8~-------8~--8-8-8-/13---\12---\10~----------------------------
A-------------10.-------------------------------------------------------
E-----------------------------------------------------------------------



e-----------------------------------------------------------------------
B-----------------------------------------------------------------------
G-----------------------------------------------------------------------
D--5.-5.-5.-5---5.--6~---6-6-6-6p5---5---5~-----------------------------
A-----------------------------------------------------------------------
E-----------------------------------------------------------------------


e-----------------------------------------------------------------------
B-----------------------------------------------------------------------
G-----------------------------------------------------------------------
D--/13-13-13-13~---13p12---12~---12-12-12-/12---/12---10~---------------
A-----------------------------------------------------------------------
E-----------------------------------------------------------------------




DOWNLOAD THIS TAB IN GUITAR PRO



  • click 'Free Download'
  • add your e-mail address
  • you will get an e-mail with your download links (in a few seconds)
  • download the Guitar Pro 6 tab + GP5 + PDF for free
  • and that's all ...


Guitar Pro: a complete workshop for guitarists at an affordable price