20150622

IVO CABRERA STYLE TAB (INSTRUMENTAL COVER OF TAYLOR SWIFT'S SONG)


Taylor Swift - Style instrumental guitar cover played by Ivo Cabrera.
Lead guitar line + rhythm guitar line.
Download the GP5, GP6 and PDF files below.


IVO CABRERA STYLE TAB

GP5 + GP6 + PDF >> 

Intro

e-----------------------------------------------------------------------
B-----------------------------------------------------------------------
G---x-x-7.--7.--7.--7.--x-7.--4-4-4-x-x-7.--7.--4-4.--4.--4.--4-4-4-----
D-----------------------------------------------------------------------
A-----------------------------------------------------------------------
E-----------------------------------------------------------------------


e-----------------------------------------------------------------------
B-----------------------------------------------------------------------
G---x-x-7.--7.--7.--7.--x-7.--4-4-4-x-x-7.--7.--4-4.--4.--4.--4-4-4-----
D-----------------------------------------------------------------------
A-----------------------------------------------------------------------
E-----------------------------------------------------------------------


e-----------------------------------------------------------------------
B-----------------------------------------------------------------------
G---x-x-7.--7.--7.--7.--x-7.--4-4-4-x-x-7.--7.--4-4.--4.--4.--4-4-4-----
D-----------------------------------------------------------------------
A-----------------------------------------------------------------------
E-----------------------------------------------------------------------



e-----------------------------------------------------------------------
B-----------------------------------------------------------------------
G---x-x-7.--7.--7.--7.--x-7.--4-4-4-x-x-7.--7.--4-4.--4.--4.--4-4-4-----
D-----------------------------------------------------------------------
A-----------------------------------------------------------------------
E-----------------------------------------------------------------------



Verse 1

e-----------------------------------------------------------------------
B-----------------------------------------------------------------------
G---9--h11-11~--------------------------9h11.--11.--9.--9.--7~----------
D-----------------------------------------------------------------------
A-----------------------------------------------------------------------
E-----------------------------------------------------------------------


e-----------------------------------------------------------------------
B-----------------------------------------------------------------------
G---9--/11-11~----------------------------------------------------------
D-----------------------------------------------------------------------
A-----------------------------------------------------------------------
E-----------------------------------------------------------------------


e-----------------------------------------------------------------------
B-----------------------------------------------------------------------
G---9--h11-11~--------------------------9h11.--11.--9.--9.--7~----------
D-----------------------------------------------------------------------
A-----------------------------------------------------------------------
E-----------------------------------------------------------------------


e-----------------------------------------------------------------------
B-----------------------------------------------------------------------
G---9--/11-11~----------------------------------------------------------
D-----------------------------------------------------------------------
A-----------------------------------------------------------------------
E-----------------------------------------------------------------------


e-----------------------------------------------------------------------
B-----------------------------------------------------------------------
G--------11/14---14-----------------------------------------------------
D---12--------------16---p14-\------------------------------------------
A-----------------------------------------------------------------------
E-----------------------------------------------------------------------


e-----------------------------------------------------------------------
B-----------------------------------------------------------------------
G---/14-----------14-12.--12.--11.--11.--9.--9.--7-----9--/11-11~-------
D-----------------------------------------------------------------------
A-----------------------------------------------------------------------
E-----------------------------------------------------------------------


e-----------------------------------------------------------------------
B-----------------------------------------------------------------------
G-----7.--7.--9--/11---11~~~--------------------------------------------
D-----------------------------------------------------------------------
A-----------------------------------------------------------------------
E-----------------------------------------------------------------------




DOWNLOAD THIS TAB IN GUITAR PRO



  • click 'Free Download'
  • add your e-mail address
  • you will get an e-mail with your download links (in a few seconds)
  • download the Guitar Pro 6 tab + GP5 + PDF for free
  • and that's all ...


Guitar Pro: a complete workshop for guitarists at an affordable price