20150628

THE SHADOWS HAPPY BIRTHDAY TAB (MELVIN CHUNG COVER)

Melvin Chung plays an instrumental guitar cover of Happy Birthday.
This version was originally played by The Shadows.
TAB under the video.



MELVIN CHUNG HAPPY BIRTHDAY TAB

PDF >>

Part 1

        A               E                               A
e-----------------------------------------------------------------------
B-----------------------------------------------------------------------
G-------------------2---1---------------------------4---2---------------
D---2-2-4-------2-------------------2-2-4-------2-----------------------
A-----------------------------------------------------------------------
E-----------------------------------------------------------------------

        A       A7      D     D#dim     A       E       A
e-----------------------------------------------------------------------
B-------5-------2-------------------3-3-2-------------------------------
G-------------------2---1-----------------------2---4---2---------------
D---2-2-------------------------4---------------------------------------
A-----------------------------------------------------------------------
E-----------------------------------------------------------------------



Part 2

e-----------------------------------------------------------------------
B-----------------------------------------------------------------------
G-------------------2-2-1-111-1-1-------------------4-4-2-222-2-2-------
D---2-2-4-444-4-2-2-----------------2-2-4-444-4-2-2---------------------
A-----------------------------------------------------------------------
E-----------------------------------------------------------------------
    x x x xxx x x x x x x xxx x x   x x x xxx x x x x x x xxx x x



e-----------------------------------------------------------------------
B-------5-555-5-2-22----------------3-3-2-222-2-------------------------
G-------------------2-2-1-111-1-----------------2-2-4-4-2---------------
D---2-2-------------------------4-4-------------------------------------
A-----------------------------------------------------------------------
E-----------------------------------------------------------------------
    x x x xxx x x xxx x x xxx x x x x x x xxx x x x x x x



Part 3

e-----------------------------------------------------------------------
B-----------------------------------------------------------------------
G-------------------2---1---------------------------4---2---------------
D---2-2-4-------2-------------------2-2-4-------2-----------------------
A-----------------------------------------------------------------------
E-----------------------------------------------------------------------


e-----------------------------------------------------------------------
B-------5-------2-------------------3-3-2-------------------------------
G-------------------2---1-----------------------2---4---2---------------
D---2-2-------------------------4---------------------------------------
A-----------------------------------------------------------------------
E-----------------------------------------------------------------------



Part 4

e-----------------------------------------------------------------------
B-------------------10--9---------------------------12--10--------------
G---9-9-11------9-------------------9-9-11------9-----------------------
D-----------------------------------------------------------------------
A-----------------------------------------------------------------------
E-----------------------------------------------------------------------


e-------12------9---------------------10-10-9---------------------------
B-------------------10--9--10--9--------------------10---12---10--------
G---9-9--------------------------11-------------------------------------
D-----------------------------------------------------------------------
A-----------------------------------------------------------------------
E-----------------------------------------------------------------------



Part 5

e-----------------------------------------------------------------------
B-----------------------------------------------------------------------
G-------------------2-2-1-111-1-1-------------------4-4-2-222-2-2-------
D---2-2-4-444-4-2-2-----------------2-2-4-444-4-2-2---------------------
A-----------------------------------------------------------------------
E-----------------------------------------------------------------------
    x x x xxx x x x x x x xxx x x   x x x xxx x x x x x x xxx x x


e-----------------------------------------------------------------------
B-------5-555-5-2-22----------------3-3-2-222-2-------------------------
G-------------------2-2-1-111-1-----------------2-2-4-4-2---------------
D---2-2-------------------------4---------------------------------------
A-----------------------------------------------------------------------
E-----------------------------------------------------------------------
    x x x xxx x x xxx x x xxx x x   x x x xxx x x x x x x



The End

        A       A7      D     D#dim     A
e-----------------------------------------------------------------------
B-------5-------2-------------------3-3-2-------------------------------
G-------------------2---1-----------------------------------------------
D---2-2-------------------------4---------------------------------------
A-----------------------------------------------------------------------
E-----------------------------------------------------------------------

   Bm7      E       A
e-----------------------------------------------------------------------
B-----------------------------------------------------------------------
G---2-------4-------2-------2-------2-------2-------2-------2-----------
D---------------------2-4-2---224-2---224-2---224-2---224-2---224-2-----
A-------------------------------------------------------------------0---
E-----------------------------------------------------------------------
                    x x x x x xxx x x xxx x x xxx x x xxx x x xxx x x



Chords

    A     E     A7    D   D#dim  Bm7
e---0-----0-----0-----2-----2-----2-------------------------------------
B---2-----0-----2-----3-----1-----3-------------------------------------
G---2-----1-----0-----2-----2-----2-------------------------------------
D---2-----2-----2-----0-----1-----4-------------------------------------
A---0-----2-----0-----------0-----2-------------------------------------
E---------0-------------------------------------------------------------