20150705

BOBBY VEE TAKE GOOD CARE OF MY BABY TAB (INSTRUMENTAL COVER BY TRAPANNER)

Trapanner plays an instrumental guitar cover of Take Good Care Of My Baby.
True Fender Stratocaster sound.
See the TAB under the video.


TAKE GOOD CARE OF MY BABY TAB

PDF >>

Part 1

e-----------------------------------------------------------------------
B---1/3-----------------------------------------------------------------
G---------4-----------------2h4---2---0-4-2-----------------------------
D-----------5---5\4-2---4h5---------------------------------------------
A-----------------------------------------------------------------------
E-----------------------------------------------------------------------


e-----------------------------------------------------------------------
B-------3-----------4-----------5---------------------------------------
G-----------4---2-0-----4-----------7---5-4---2-0-2---------------------
D---0-----------------------7-5-----------------------------------------
A-----------------------------------------------------------------------
E-----------------------------------------------------------------------



Part 2

e-----------------------------------------------------------------------
B-----------------------------------------------------------------------
G-----------------------------------------------------------------------
D---5-----5-4---4\2---2-4/5-5----------5-------4------------------------
A-----------------------------------------------------------------------
E-----------------------------------------------------------------------



e-----------------------------------------------------------------------
B-----------------------------------------------------------------------
G-----------------------------2h4---2-----------------------------------
D---5-5---4---4---2---4---5---------------------------------------------
A-----------------------------------------------------------------------
E-----------------------------------------------------------------------


e-----------------------------------------------------------------------
B---3/5-5---3-----------------------3---3-------------------------------
G---------------5---4---3-4-----------------5---4---2---1-2-------------
D-----------------------------------------------------------------------
A-----------------------------------------------------------------------
E-----------------------------------------------------------------------


e-----------------------------------------------------------------------
B-------------------------------5---------------------------------------
G---5---5---4---2-------------------------------------------------------
D-------------------5---4---5-------------------4-----------------------
A-----------------------------------------------------------------------
E-----------------------------------------------------------------------



Part 3

e-----------------------------------------------------------------------
B-----------------------------------------------------------------------
G-----------------------------------------------------------------------
D---5---4---4\2---2-4/5-5----------5-------4----------------------------
A-----------------------------------------------------------------------
E-----------------------------------------------------------------------


e-----------------------------------------------------------------------
B-----------------------------------------------------------------------
G-----------------------------2h4---2-----------------------------------
D---5-5---4---4---2---4---5---------------------------------------------
A-----------------------------------------------------------------------
E-----------------------------------------------------------------------


e-----------------------------------------------------------------------
B---3/5-5---3-----------------------3---3-------------------------------
G---------------5---4---3-4-----------------5---4---2---1-2-------------
D-----------------------------------------------------------------------
A-----------------------------------------------------------------------
E-----------------------------------------------------------------------


e-----------------------------------------------------------------------
B-----------------------------------------3-----------------------------
G---5---5---4---2-----------2---------4-------4-------------------------
D-------------------5---4-------5---------------------------------------
A-----------------------------------------------------------------------
E-----------------------------------------------------------------------



Part 4

e-----------------------------------2-----------------------------------
B---------------3---5-----------3-------3-----------3h5-3---------------
G---2---4---5-----------------------------------4-----------------------
D-----------------------------------------------------------------------
A-----------------------------------------------------------------------
E-----------------------------------------------------------------------


e-----------------------------------------2-----------------------------
B---3-----------------3---5-----------3-------3---3---------------------
G-----4---2---4---5-----------------------------------4---2---0-2-------
D-------------------------------------------------------------------0---
A-----------------------------------------------------------------------
E-----------------------------------------------------------------------



Part 5

e-----------------------------------------------------------------------
B---8--------------------8----------------8-----------------------------
G-------11---11p9---11----------------------------11--------------------
D-----------------------------------------------------------------------
A-----------------------------------------------------------------------
E-----------------------------------------------------------------------


e-----------------------------------------------------------------------
B---8-8----------------------8---10/12---10-----------------------------
G---------11---11---9---11----------------------------------------------
D-----------------------------------------------------------------------
A-----------------------------------------------------------------------
E-----------------------------------------------------------------------


e---12---12---10-------------------------10---10------------------------
B------------------13---12---11-12-----------------13---12---10---9-10--
G-----------------------------------------------------------------------
D-----------------------------------------------------------------------
A-----------------------------------------------------------------------
E-----------------------------------------------------------------------


e--------------------------------------12-------------------------------
B---13---13---12---10---------------------------------------------------
G-----------------------12---11---12----------------11------------------
D-----------------------------------------------------------------------
A-----------------------------------------------------------------------
E-----------------------------------------------------------------------



Part 6

e---3---------------------------0---------------------------------------
B---3---------------------------0---------------------------------------
G---4---------------------------1---------------------------------------
D---5---------------------------2---------------------------------------
A---5---------------------------2-----------------------0--2--0---------
E-------------------------------0--------------0--2--4------------------


e-----------------------------------------------------------------------
B-----------------------------------------------------------------------
G---2---1---1-------1---2---------------2-------1-----------------------
D-------------4---------------------------------------------------------
A-----------------------------------------------------------------------
E-----------------------------------------------------------------------


e-----------------------------------------------------------------------
B-----------------------------------------------------------------------
G---2-2---1---1-------1---2---4/6---4-----------------------------------
D-----------------4-----------------------------------------------------
A-----------------------------------------------------------------------
E-----------------------------------------------------------------------


e-----------------------------------------------------------------------
B---5/7-7---5------------------------5---5------------------------------
G---------------7---6---5-6------------------7---6.--4---3-4------------
D-----------------------------------------------------------------------
A-----------------------------------------------------------------------
E-----------------------------------------------------------------------


e-----------------------------------------------------------------------
B-------------------------------7---------------------------------------
G---7---7---6---4-------------------------------------------------------
D-------------------7---6---7-------------------6-----------------------
A-----------------------------------------------------------------------
E-----------------------------------------------------------------------



Part 7

e-----------------------------------------------------------------------
B-----------------------------------------------------------------------
G-----------------------------------------------------------------------
D---7---6---6-4-----6---7-------------7-------6-------------------------
A-----------------------------------------------------------------------
E-----------------------------------------------------------------------


e-----------------------------------------------------------------------
B---10---9---9--------9---10-------------10-------9---------------------
G--------------11-------------------------------------------------------
D-----------------------------------------------------------------------
A-----------------------------------------------------------------------
E-----------------------------------------------------------------------


e-----------------------------------------------------------------------
B-----------------------------------------------------------------------
G-----------------------------------------------------------------------
D---7---6---6-4-----6---7-------------7-------6-------------------------
A-----------------------------------------------------------------------
E-----------------------------------------------------------------------


e---5-------------------------------------------------------------------
B---5-------------------------------------------------------------------
G---6-------------------------------------------------------------------
D---7-------------------------------------------------------------------
A---7-------------------------------------------------------------------
E-----------------------------------------------------------------------