20150719

ERIC CLAPTON COCAINE TAB (SOLO LIVE AT 2004 CROSSROADS GUITAR FESTIVAL)

Eric Clapton's live Cocaine solo from 2004 Crossroads Guitar Festival.
It starts at 1:14 ... enjoy.
See the TAB under the video.



ERIC CLAPTON COCAINE SOLO TAB

PDF >>

(1:14)

e-----------------------------------------------------------------------
B---17(19)--------------------------------------------------------------
G-----------------------------------------------------------------------
D-----------------------------------------------------------------------
A-----------------------------------------------------------------------
E-----------------------------------------------------------------------


e-----------------------------------------------------------------------
B---17(19)---(17)(19)---17(19)------17.-17~-----------15--15~---h17.----
G-------------------------------------------------------16--------------
D-----------------------------------------------------------------------
A-----------------------------------------------------------------------
E-----------------------------------------------------------------------


e-----------------------------------------------------------------12~---
B------------------12-15-12-----------------------------12-15(17)-------
G-------12-14-(16)----------14(16)-14p12--14--12-14(16)-----------------
D---/14---------------------------------14--14--------------------------
A-----------------------------------------------------------------------
E-----------------------------------------------------------------------




e---12-14-12h14p12------------------------------------------------------
B-----------------15-12h15p12--12---------------------------------------
G----------------------------14--14/16~~~-------------------------------
D-----------------------------------------------------------------------
A-----------------------------------------------------------------------
E-----------------------------------------------------------------------


e-----------------------------------------------------------------------
B---17(19)-------(20).--15~--------17.----------------------------------
G-----------------------------16.-------16.-----------------------------
D-----------------------------------------------------------------------
A-----------------------------------------------------------------------
E-----------------------------------------------------------------------


e---------15-17-17(19)-17-15--17--15-17(19)------(17)p15----------------
B---15-17-------------------17--17----------------------17~--17~--------
G-----------------------------------------------------------------------
D-----------------------------------------------------------------------
A-----------------------------------------------------------------------
E-----------------------------------------------------------------------


e---15-17-(19)---17~------15.-------------------------------------------
B--------------------------------17~------------------------------------
G-----------------------------------------------------------------------
D-----------------------------------------------------------------------
A-----------------------------------------------------------------------
E-----------------------------------------------------------------------


e----------------------------------------12--------------12~------------
B---15---------------------------------12--12-15(17)--------------------
G-----16\14-12-----12--14--12-14(16)------------------------------------
D-------------14-12--14--14---------------------------------------------
A-----------------------------------------------------------------------
E-----------------------------------------------------------------------


e---12~--12~------------------------------------------------------------
B-------------15p12-----------------------------------------------------
G------------------14(16)-14-12--14--12---------------------------------
D------------------------------14--14--14-12----------------------------
A-------------------------------------------14\12p10-12---12---10'------
E--------------------------------------------------------------------12\


e-------0--------0--------0--------0---3'-------------------------------
B-------0---/5---0---/5---0---/5---0----------5p3p0---------------------
G--------------------------------------------------2'-----0-------------
D-------------------------------------------------------------2p0-2-----
A-----------------------------------------------------------------------
E---0-------------------------------------------------------------------


e------/7~-7~-7~-7~-7~-9--9--7~-7~-7~-7~-7~-7~-7~-7~--------------------
B------/8~-8~-8~-8~-8~-10-10-8~-8~-8~-8~-8~-8~-8~-8~--------------------
G------/7~-7~-7~-7~-7~-9--9--7~-7~-7~-7~-7~-7~-7~-7~--------------------
D-----------------------------------------------------------------------
A-----------------------------------------------------------------------
E---0-------------------------------------------------------------------


e---7~-7~-7~-7~-9--9--7~-----0------------------------------------------
B---8~-8~-8~-8~-10-10-8~-----0------------------------------------------
G---7~-7~-7~-7~-9--9--7~------------------------------------------------
D-----------------------------------------------------------------------
A-----------------------------------------------------------------------
E-----------------------------------------------------------------------


e----------3.--5.--5/6-3-5---3------------------------------------------
B---/5---------------------5---5-3--------------------------------------
G----------------------------------4\2-0---2----------------------------
D----------------------------------------2---2--------------------------
A-----------------------------------------------------------------------
E-----------------------------------------------------------------------


e-----------------------------------------------------------------------
B---/3-3-3-3-3-3-3-/3-3-3-3-3-3-3-/8-8-8-8-8-8-8-/12-12-12-12-12-12-12--
G---/4-4-4-4-4-4-4-/4-4-4-4-4-4-4-/9-9-9-9-9-9-9-/12-12-12-12-12-12-12--
D-----------------------------------------------------------------------
A-----------------------------------------------------------------------
E-----------------------------------------------------------------------


e-----------------------------------------------------------------------
B---/15-15-15-15-15-15-15-17(19)--------(17)----------------------------
G---/16-16-16-16-16-16-16-----------------------------------------------
D-----------------------------------------------------------------------
A-----------------------------------------------------------------------
E-----------------------------------------------------------------------


e-----------------------------------------------------------------------
B---17.-17.-17~--15--17.--15--17.--15--17-15----17-15--17-15--17--------
G------------------16-------16-------16-----16-------16-----16----------
D-----------------------------------------------------------------------
A-----------------------------------------------------------------------
E-----------------------------------------------------------------------


e-----------------------------------------------------------------------
B---15h17p15--15-15-15h17p15--15-15-15h17p15--15-15---------------------
G-----------16--------------16--------------16--------------------------
D-----------------------------------------------------------------------
A-----------------------------------------------------------------------
E-----------------------------------------------------------------------


e-----------------------------------------------------------------------
B---15h17p15--15-15-17(19)-----(17)p15--15-17-15h17p15--15-17-----------
G-----------16------------------------16--------------16----------------
D-----------------------------------------------------------------------
A-----------------------------------------------------------------------
E-----------------------------------------------------------------------


e--------------------------------17-19-17h19p17--17---------------------
B-15h17p15--15----------17--17-20--------------20--20-17h20p17--17------
G---------16--16/19~------19----------------------------------19--19(21)
D-----------------------------------------------------------------------
A-----------------------------------------------------------------------
E-----------------------------------------------------------------------


e-----------------------------------------------------------------------
B---17~~~-----17-19-(20)(19)-17--17-19-17h19p17--17-19(20)--------------
G------------------------------19--------------19-----------------------
D-----------------------------------------------------------------------
A-----------------------------------------------------------------------
E-----------------------------------------------------------------------


e-----------------------------------------------------------------------
B---17h19~----17~----19(20)~------17h19~---17--17-19(20)-----(19)p17--17
G--------------------------------------------19---------------------19--
D-----------------------------------------------------------------------
A-----------------------------------------------------------------------
E-----------------------------------------------------------------------


e-----------------------------------------------------------------------
B---19-(20)-(19)p17--17-19-(20)-(19)p17--17-19.-(20)(19)p17--17---------
G------------------19------------------19------------------19-----------
D-----------------------------------------------------------------------
A-----------------------------------------------------------------------
E-----------------------------------------------------------------------


e-----------------------------------------------------------------------
B---19.-(20)(19)p17--17-19.-(20)(19)p17--17-17~~~--\\\------------------
G------------------19------------------19-------------------------------
D-----------------------------------------------------------------------
A-----------------------------------------------------------------------
E-----------------------------------------------------------\\\---------