20150708

GAME OF THRONES THEME WESTERN COVER TAB (BENDANPRODUCTIONS)


BenDanProductions plays a Western Guitar Cover of the Game of Thrones theme.
See the TAB under the video.



GAME OF THRONES THEME WESTERN COVER TAB

PDF >>

Part 1

e---0---------------------------0---------------------------------------
B---1---------------------------2---------------------------------------
G---2---------------------------2---------------------------------------
D---2---------------------------2---------------------------------------
A---0---------------------------0---------------------------------------
E-----------------------------------------------------------------------



Part 2

    Am                                  Em
e-----------------------------------------------------------------------
B---5~------------------5~----------------------------------------------
G-------------------5h7-------------5h7-4~------------------------------
D-----------7~----------------7~----------------------------------------
A-----------------------------------------------------------------------
E-----------------------------------------------------------------------

    G                                     D
e-----------------------------------------------------------------------
B---3~------------------3~----------------------------------------------
G-------------------5p4---------------5p4-2~----------------------------
D-----------5~----------------5~----------------------------------------
A-----------------------------------------------------------------------
E-----------------------------------------------------------------------




    Am                                  Em
e-----------------------------------------------------------------------
B---5~------------------5~----------------------------------------------
G-------------------5h7-------------5h7-4~------------------------------
D-----------7~----------------7~----------------------------------------
A-----------------------------------------------------------------------
E-----------------------------------------------------------------------

    G                                     Am
e-----------------------------------------------------------------------
B---3~------------------3~----------------------------------------------
G-------------------5p4---------------5p4-2~----------------------------
D-----------5~----------------5~----------------------------------------
A-----------------------------------------------------------------------
E-----------------------------------------------------------------------

    Am                                  Em
e-----------------------------------------------------------------------
B---5~------------------5~----------------------------------------------
G-------------------5h7-------------5h7-4~------------------------------
D-----------7~----------------7~----------------------------------------
A-----------------------------------------------------------------------
E-----------------------------------------------------------------------

    G                                 Am
e-----------------------------------------------------------------------
B---3~------------------------------------------------------------------
G-------------------4-----4h5-4-\-0---2~--------------------------------
D-----------5~----------------------------------------------------------
A-----------------------------------------------------------------------
E-----------------------------------------------------------------------



Part 3

    F                 C              Dm             Am
e-----------------------------------------------------------------------
B---10~---------------8~------------------------------------------------
G---------------------------------------------------9~------------------
D------------------------------------7~---------------------------------
A-----------------------------------------------------------------------
E-----------------------------------------------------------------------

    F                 C       G       Am
e-----------------------------------------------------------------------
B-----------------------------------------------------------------------
G---------------------5~------7~------9~--------------------------------
D---3~------------------------------------------------------------------
A-----------------------------------------------------------------------
E-----------------------------------------------------------------------

    F                 C              Dm             Am
e-----------------------------------------------------------------------
B---10~---------------8~------------------------------------------------
G---------------------------------------------------9~------------------
D------------------------------------7~---------------------------------
A-----------------------------------------------------------------------
E-----------------------------------------------------------------------

    F                 C       G       Am
e-----------------------------------------------------------------------
B-----------------------------------------------------------------------
G---------------------5~------4~------2~--------------------------------
D---3~------------------------------------------------------------------
A-----------------------------------------------------------------------
E-----------------------------------------------------------------------



Part 4

    Am
e---5-----5-----5---5-----5-----5---5-----------------------------------
B-----5-----5-----5---5-----5-----5-------------------------------------
G-------2-----2---------2-----2-----------------------------------------
D-----------------------------------------------------------------------
A-----------------------------------------------------------------------
E-----------------------------------------------------------------------



Chords

   Am     Em    G     C     D     F     A    Dm

e---0-----0-----3-----0-----2-----1-----0-----1-------------------------
B---1-----0-----3-----1-----3-----1-----2-----3-------------------------
G---2-----0-----0-----0-----2-----2-----2-----2-------------------------
D---2-----2-----0-----2-----0-----3-----2-----0-------------------------
A---0-----2-----2-----3-----------3-----0-------------------------------
E---------0-----3-----------------1-------------------------------------