20150723

VICTOR DE ANDRES BARBIE GIRL TAB (METAL VERSION)


Aqua - Barbie Girl metal version played by Victor de Andres.
He is using standard tuning.
See the TAB under the video.



VICTOR DE ANDRES BARBIE GIRL TAB


Part 1

e-----------------------------------------------------------------------
B-------------14--------------------------------------------------------
G---/13----13----14~----\-----/11----11-14(16)-11(13)---(11)-9~---------
D-------14------------------------13------------------------------------
A-----------------------------------------------------------------------
E-----------------------------------------------------------------------


e-----------------------------------------------------------------------
B-----------------------------------------------------------------------
G---9----9h11~--p9---------11-11-11-11-11-11-9-9-11/13-13-13-11-11-11---
D-----11----------11~--9-9----------------------------------------------
A-----------------------------------------------------------------------
E-----------------------------------------------------------------------
                       x x x  x  x  x  x  x  x x       x  x     x  x

e-----------------------------------------------------------------------
B------------14---------------------------------------------------------
G---13----13----14~----\-----/11----11-14(16)-11(13)---(11)-9~----------
D------14------------------------13-------------------------------------
A-----------------------------------------------------------------------
E-----------------------------------------------------------------------



e-----------------------------------------------------------------------
B-----------------------------------------------------------------------
G---9----9h11~--p9---------11-11-11-11-11-11-9-9-11/13-13-13-11-9-9~~~-\
D-----11----------11~--9-9----------------------------------------------
A-----------------------------------------------------------------------
E-----------------------------------------------------------------------
                       x x x  x  x  x  x  x  x x       x  x   


Part 2

e-----------------------------------------------------------------------
B-----------------------------------------------------------------------
G---9--11--13-13-13--9-9-11--13-13-13-----------------------------------
D-----------------------------------------------------------------------
A-----------------------------------------------------------------------
E-----------------------------------------------------------------------
           x  x  x   x x x   x  x  x

e-----------------------------------------------------------------------
B-----------------------------------------------------------------------
G---9-9-11--13-13-13-13-13h14-13-11~------------------------------------
D-----------------------------------------------------------------------
A-----------------------------------------------------------------------
E-----------------------------------------------------------------------
    x x x   x  x  x  x




DOWNLOAD THE COMPLETE TAB HERE





  • click 'Buy Now' and send $6  (or 'Add to Cart' if you want to buy more tabs)
  • add your e-mail address
  • you will get a confirmation e-mail with your download link (in a few seconds)
  • download the full tab (text tab)
  • then start to learn the full song - that's all

IF YOU DIDN'T GET YOUR DOWNLOAD LINK, PLEASE CONTACT US HERE >>

SEND YOUR GUITAR TAB REQUEST HERE >>
MORE ON GUITAR TABS A-Z >>

Guitar Pro: a complete workshop for guitarists at an affordable price