20150819

SASA CINDRIC SUNSET IN CROATIA TAB


Saša Cindrić plays his original song called Sunset in Croatia.
Standard tuning - Capo on the 2nd fret.
See the TAB under the video.



SASA CINDRIC SUNSET IN CROATIA TAB

PDF >>

 - CAPO on 2nd -

e---2-0---2-----5-5-7-5-3-3-----2---------5-----3---2-----2h3p2-----0---
B-------3---3---------------0-----0-----2---2-----------3-3-----3-------
G-------------2---------------0-------2-------2---0---2---2-------2-----
D---0-----0-----------------------------------------0-----0-------------
A-----------------------------------0-----0-----------------------------
E-------------------0-----0---------------------------------------------


e---2-0---2-----5-5-7-5-3-3-----2---------5-----3---2-----2h3p2---------
B-------3---3---------------0-----0-----2---2-----0-----3-3-----3---0---
G-------------2---------------0-------2-------2-------2---2-------2-----
D---0-----0-----------------------------------------0-----0-------------
A-----------------------------------0-----0-----------------------------
E-------------------0-----0---------------------------------------------


e---------10--9-7-7-7-----5-----3---------5-----3---2-----2h3p2---------
B-------7-7-----------0-----0-----0-----2---2-----------3-3-----3---0---
G-----7---7-------------0-----0-------2-------2---0---2---2-------2-----
D---0-----0-----------------------------------------0-----0-------------
A-----------------------------------0-----0-----------------------------
E-------------------0-----0---------------------------------------------



e---------10--9-7-7-7-----5-----3---------5-----5---2-----2h3p2-----0---
B-------7-7-----------0-----0-----0-----2---2-----0-----3-3-----3-------
G-----7---7-------------0-----0-------2-------2-------2---2-------2-----
D---0-----0-----------------------------------------0-----0-------------
A-----------------------------------0-----0-----------------------------
E-------------------0-----0---------------------------------------------


e--3-----5--5h7-5\--2-----2h3p2-----0-3-----5--5h7-5\--------10-----9---
B------0----------0-----3-3-----3---------0----------0-----7----7-----0-
G----0----------------2---2-------2-----0----------------7--------7-----
D-------------------0-----0----------------------------0-----0----------
A--------0----------------------------------0---------------------------
E--0----------------------------------0---------------------------------


e--3-----5--5h7-5\--2-----2h3p2-----0-3-----5--5h7-5\--10----10-----10--
B------0----------0-----3-3-----3---------0----------0-----7----7------0
G----0----------------2---2-------2-----0----------------7--------7-----
D-------------------0-----0----------------------------0-----0----------
A--------0----------------------------------0---------------------------
E--0----------------------------------0---------------------------------


e---5h7-5---5-----5-5-5h7-5---5-----5-----------------------------------
B---------7---7---7---------7---7---7-----------------------------------
G---------------7-----------------7---0---------------------------------
D---0-------0---------0-------0-----------------------------------------
A-----------------------------------------------------------------------
E-----------------------------------------------------------------------


e--------10-----9---3h5-3---3-----3-3-3h5-3---3-----3---3-2---2-----2-0-
B------7----7---7---------0---0---0---------0---0-----0-----3---3-------
G----7--------7---0-------------0-----------------0---------------2-----
D--0-----0----------------------------------------------0-----0---------
A-----------------------------------------------------------------------
E-------------------0-------0---------0-------0-------------------------


e---0-------------------------------------------------------------------
B-----3p1-1-----1---0-1-3-0-----0---0-1-3-0-----------------------------
G-----------0---0-----------0---0-----------0---0-----------------------
D-------------2---0-----------0---0-----------0---0---------------------
A---3-----3-----3-------------------------------------------------------
E-------------------3-----3-----3---3-----3-----3-----------------------


e-----------0-----0-------0-3-----3-0-2-3---5---5-5-2-2-3---5---5-5-0---
B-----0-0h1---1---1---1-3-----1---1-------3-3---3-3-------3-3-----------
G---2-----------2---0-----------0-----------2---------------2-----------
D-------------------------------------0-----0---------0-----0-----------
A---0-------0---------3-----3-------------------------------------------
E-----------------------------------------------------------------------


e--3-----5--5h7-5\--2-----2h3p2-----0-3-----5--5h7-5\--------10-----9---
B------0----------0-----3-3-----3---------0----------0-----7----7---7---
G----0----------------2---2-------2-----0----------------7--------7---0-
D-------------------0-----0----------------------------0-----0----------
A--------0----------------------------------0---------------------------
E--0----------------------------------0---------------------------------


e--3-----5--5h7-5\--2-----2h3p2-----0-3-----5--5h7-5\--10----10-----10--
B------0----------0-----3-3-----3---------0----------0---7------7---7--0
G----0----------------2---2-------2-----0------------------7------7-----
D-------------------0-----0----------------------------0-----0----------
A--------0----------------------------------0---------------------------
E--0----------------------------------0---------------------------------


e---2-0---2-----5-5-7-5-3-3-----2---------5-----3---2-----2h3p2-----0---
B-------3---3---------------0-----0-----2---2-----0-----3-3-----3-------
G-------------2---------------0-------2-------2-------2---2-------2-----
D---0-----0-----------------------------------------0-----0-------------
A-----------------------------------0-----0-----------------------------
E-------------------0-----0---------------------------------------------


e---2-0---2-----5-5-7-5-3-3-----2---------5-----3---2-----2h3p2---------
B-------3---3---------------0-----0-----2---2-----0-----3-3-----3---0---
G-------------2---------------0-------2-------2-------2---2-------2-----
D---0-----0-----------------------------------------0-----0-------------
A-----------------------------------0-----0-----------------------------
E-------------------0-----0---------------------------------------------


e---------10--9-7-7-7-----5-----3---------5-----3---2-----2h3p2---------
B-------7-7-----------0-----0-----0-----2---2-----0-----3-3-----3---0---
G-----7---7-------------0-----0-------2-------2-------2---2-------2-----
D---0-----0-----------------------------------------0-----0-------------
A-----------------------------------0-----0-----------------------------
E-------------------0-----0---------------------------------------------


e---------10--9-7-7-7-----5-----3---------5-----5-0-2-----2h3p2--------0
B-------7-7-----------0-----0-----0-----2---2-----------3--------3------
G-----7---7-------------0-----0-------2-------2-------2-------------2---
D---0-----0-----------------------------------------0-------------------
A-----------------------------------0-----0-----0-----------------------
E-------------------0-----0---------------------------------------------


e-------2---------------------------------------------------------------
B------3----------------------------------------------------------------
G-----2-----------------------------------------------------------------
D----0------------------------------------------------------------------
A---0-------------------------------------------------------------------
E-----------------------------------------------------------------------