20150809

SKEETER DAVIES END OF THE WORLD TAB (INSTRUMENTAL COVER BY JOHN MASON)

John Mason plays a great instrumental guitar cover of End Of The World.
Nice Fender Stratocaster !!!
See the TAB under the video.



END OF THE WORLD INSTRUMENTAL TAB

PDF >>

Part 1

e-----------------------------------------------------------------------
B-------------------------8-6-------------------------------------------
G---7~------7-5-3~------7-------5~--------------------------------------
D-----------------------------------------------------------------------
A-----------------------------------------------------------------------
E-----------------------------------------------------------------------


e-----------------------------------------------------------------------
B-----------------------------------------------------------------------
G---3~------3-2-0-----3---8-7~------------------------------------------
D-----------------------------------------------------------------------
A-----------------------------------------------------------------------
E-----------------------------------------------------------------------


e-----------------------------------------------------------------------
B---------8-----8~------6-8-10~------6---6~-----------------------------
G---5----------------------------------7--------------------------------
D-----------------------------------------------------------------------
A-----------------------------------------------------------------------
E-----------------------------------------------------------------------


e-----------------------------------------------------------------------
B-----8-----6-----4---3-------3-4~--------------------------------------
G---7-----------------------5-------------------------------------------
D-----------------------------------------------------------------------
A-----------------------------------------------------------------------
E-----------------------------------------------------------------------



Part 2

e-----------------------------------------------------------------------
B-------------------------8-6-------------------------------------------
G---7~------7-5-3~------7-------5~--------------------------------------
D-----------------------------------------------------------------------
A-----------------------------------------------------------------------
E-----------------------------------------------------------------------


e-----------------------------------------------------------------------
B-----------------------------------------------------------------------
G---3~--------3-2-0-----3---8-7~----------------------------------------
D-----------------------------------------------------------------------
A-----------------------------------------------------------------------
E-----------------------------------------------------------------------


e-----------------------------------------------------------------------
B---------8-----8~------6-8-8/10~------6---6~---------------------------
G---5------------------------------------7------------------------------
D-----------------------------------------------------------------------
A-----------------------------------------------------------------------
E-----------------------------------------------------------------------


e-----------------------------------------------------------------------
B-----8---4-------------------------------------------------------------
G---7-------5---3-2~----5-----5\3~--------------------------------------
D-----------------------------------------------------------------------
A-----------------------------------------------------------------------
E-----------------------------------------------------------------------



Part 3

e-----------------------3---3-------------------------------------------
B-----------------4---4-------6---3~------------------------------------
G---3-------3---3-------------------------------------------------------
D-----5---5-------------------------------------------------------------
A-----------------------------------------------------------------------
E-----------------------------------------------------------------------


e-----------------------------------------------------------------------
B---3-4---3-4---4-4/6~------3/6-3~--------------------------------------
G-----------------------------------------------------------------------
D-----------------------------------------------------------------------
A-----------------------------------------------------------------------
E-----------------------------------------------------------------------


e-----5-----------------------5~----------------------------------------
B---6---------6-3-6~------3-6---------6-3-6~----------------------------
G-----------------------------------------------------------------------
D-----------------------------------------------------------------------
A-----------------------------------------------------------------------
E-----------------------------------------------------------------------


e-----------------------------------------------------------------------
B---3-8~-----6~-----4---3~-----3-4~-------------------------------------
G----------------------------5------------------------------------------
D-----------------------------------------------------------------------
A-----------------------------------------------------------------------
E-----------------------------------------------------------------------



Part 4

e------------------------------15-13------------------------------------
B---15~------15\13-11~------15-------13~--------------------------------
G-----------------------------------------------------------------------
D-----------------------------------------------------------------------
A-----------------------------------------------------------------------
E-----------------------------------------------------------------------


e-----------------------------------------------------------------------
B---11~------11-13-13/15~-------11-16-15~-------------------------------
G-----------------------------------------------------------------------
D-----------------------------------------------------------------------
A-----------------------------------------------------------------------
E-----------------------------------------------------------------------


e----------15-----15~----------13-15-15(17)~------13----13--------------
B---13-----------------------------------------------15----15~----------
G-----------------------------------------------------------------------
D-----------------------------------------------------------------------
A-----------------------------------------------------------------------
E-----------------------------------------------------------------------


e------15---11----------------------------------------------------------
B---15---------13---11-10~-----13-----13\11~----------------------------
G-----------------------------------------------------------------------
D-----------------------------------------------------------------------
A-----------------------------------------------------------------------
E-----------------------------------------------------------------------



Part 5

e-----------------------------------------------------------------------
B-----------------------------------------------------------------------
G-----------------------------------------------------------------------
D-------------------------6-4-------------------------------------------
A---6-----6\4-2~------4/6-----4~----------------------------------------
E-----------------------------------------------------------------------


e-----------------------------------------------------------------------
B-----------------------------------------------------------------------
G-----------------------------------------------------------------------
D-----------------------------------------------------------------------
A---4-2~------2-4-6~-------2-4/7-6~-------------------------------------
E-----------------------------------------------------------------------


e----------16-----16~----------14-16-16(18)~------14----14--------------
B---14-----------------------------------------------16----16~----------
G-----------------------------------------------------------------------
D-----------------------------------------------------------------------
A-----------------------------------------------------------------------
E-----------------------------------------------------------------------


e------16---12~---------------------------------------------------------
B---16--------------14---12-11~--------12/14-----12/14----\12~----------
G-----------------------------------------------------------------------
D-----------------------------------------------------------------------
A-----------------------------------------------------------------------
E-----------------------------------------------------------------------



Part 6

e---2-/-----------------------------------------------------------------
B---4-/---12-(14)(12)-11~-----11-(12)(11)-9~-----9-(11)(9)-7~-----------
G-----------------------------------------------------------------------
D-----------------------------------------------------------------------
A-----------------------------------------------------------------------
E-----------------------------------------------------------------------


e----------------19---18---14---11---7---6~-----------------------------
B---7---9---11----------------------------------------------------------
G-----------------------------------------------------------------------
D-----------------------------------------------------------------------
A-----------------------------------------------------------------------
E-----------------------------------------------------------------------