20150921

AKIHIRO TANAKA FLOWER TAB (田中彬博 TAB)


Great fingerstyle guitar cover played by sudai0407
The original video title says: 田中彬博 「flower」 Akihiro Tanaka
Tuning: CGDGBD  -  Capo on the 6th fret.
See the TAB under the video.



AKIHIRO TANAKA FLOWER TAB (田中彬博 TAB)

GP5 + GP6 + PDF >>

Part 2

D----/4-4-4---4---0---0---------------0-0-0-----------------------------
B-----0-0-0---0---0-----1-0---------------------------------------------
G---------------------------0-----0---4-4-4-------0---0-----------------
D-----------------------------0h4-------------4---------4-0-------0-----
G---0-------0-------0---------------5-------5-------5-------5-----------
C-------------------------------------------------------------0h2-------


D-----0-0-0---0---4---4---4---4---0-----------------0-------------------
B-----0-0-0---0---0---0---0---0---0------1-0-------0-----------2/3---0--
G--------------------------------------------0----2--------0------------
D-----------------------------------------------------0-0h2-------------
G-----------------------------------------------------------------------
C---4-------4-------2-------2-------0-----------------------------------


D-----------------------------------------------------------------------
B---------------------------------2/3--2-1-0----------------------------
G-----2/4-4-4---4---0---------0-----------------------------------------
D-----2/4-4-4---4---0---0-0h2-------------------------------------------
G---0---------0-------0---------0---------------------------------------
C-----------------------------------------------------------------------



D-------------------------0---------------------------------------------
B-----0-0-0---0-----------3-1-0-----------------------------------------
G-----4-4-4---4---0-------0-------0-------------------------------------
D-----5-5-5---5---0-------------0---------------------------------------
G-----------------------------------------------------------------------
C---4-------4-------4-----4p0-------------------------------------------


D-----------------------------------------------------------------------
B-----------------------------------------------------------------------
G---2---2/4-0---------2---2/4-0-----0-----------------------------------
D-----------------0---0-----------0-------------------------------------
G---------------0-----0-------0-----------------------------------------
C---0-------0-----------------------------------------------------------


D-------------------------0---------------------------------------------
B---1-0-----------0------0----------2/3-0-------------------------------
G---0---0-2---0-2-------2---------0-------------------------------------
D---------------------------0-0h2---------------------------------------
G---2-----2-------------------------------------------------------------
C-------------------2---------------------------------------------------




DOWNLOAD THE COMPLETE TAB HERE





  • click 'Buy Now' and send $6  (or 'Add to Cart' if you want to buy more tabs)
  • add your e-mail address
  • you will get a confirmation e-mail with your download links (in a few seconds)
  • download the full Guitar Pro 6 tab + GP5 + PDF
  • then start to learn the full song - that's all ...

IF YOU DIDN'T GET YOUR DOWNLOAD LINK, PLEASE CONTACT US HERE >>

SEND YOUR GUITAR TAB REQUEST HERE >>
MORE ON GUITAR TABS A-Z >>

Guitar Pro: a complete workshop for guitarists at an affordable price