20150916

HANSEL PETHIG AND I LOVE HER TAB (FINGERSTYLE GUITAR COVER)

Hansel Pethig plays And I Love Her by The Beatles.
Nice fingerstyle guitar cover.
Download the Guitar Pro Tab below.



HANSEL PETHIG AND I LOVE HER TAB

GP5 + GP6 + PDF >>

Intro

e--------------------0---0-------0--------------------------------------
B--------------1-----1---1------1---------------------------------------
G--------------2-----2---2-----2----------------------------------------
D------5-4-2-------2---2-------------2----5-4---------------------------
A---/5-----0-----0---------0-------0---/5-------------------------------
E-----------------------------------------------------------------------


e-------0-----0---0-------0---------------------------------------------
B-------0-----0---0------0----------------------------------------------
G-------0-----0---0-----0-----------------------------------------------
D---2------------------------------5-4----------------------------------
A-----------2---2-------------2-/5--------------------------------------
E---0-----0---------0-------0-------------------------------------------


Verse 1

e-------------------2-0---3---------------------------------------------
B-----------0-1-----0-----0---0-----------------------------------------
G-------2-2-------0-0-------0---0---------------------------------------
D---2---2-------2-------2---------2-------------------------------------
A---0-------0-----------------------------------------------------------
E-------------------0---------------------------------------------------



e-------------------2-0-------------------------------------------------
B-----------0---1---0---------0-----------------------------------------
G-------2---------0-0-----0-----0---------------------------------------
D-----2---2---2-------------4-----2-------------------------------------
A---0-------------------2-----------------------------------------------
E-------------------0---------------------------------------------------


e-------------------2-0---3---------------------------------------------
B-----------0---1---0---------------------------------------------------
G-------2---------0-0---------0---0-------------------------------------
D-----2---2---2-------------2---0---------------------------------------
A---0-------------------2-----------------------------------------------
E-------------------0---------------------------------------------------


e-------3------0--------------------------------------------------------
B-------1-----1----1----------------------------------------------------
G-----0---0--0-------0-4-2----------------------------------------------
D----------------------0------------------------------------------------
A---3-------3-----------------------------------------------------------
E------------------------------2----------------------------------------




DOWNLOAD THIS TAB IN GUITAR PRO



  • click 'Free Download'
  • add your e-mail address
  • you will get an e-mail with your download links (in a few seconds)
  • download the Guitar Pro 6 tab + GP5 + PDF for free
  • and that's all ...


Guitar Pro: a complete workshop for guitarists at an affordable price