20150906

JOSH TURNER YOUR MAN TAB (LIVE AT THE BING LOUNGE, CHORDS AND SOLO)


Josh Turner plays an acoustic version of Your Man live at the Bing Lounge.
The TAB includes the lead guitar parts and the chords.



JOSH TURNER YOUR MAN TAB

PDF >>

Intro solo
                                   A
e-----------------------------------------------------------------------
B-----------------------------------------------------------------------
G------------------------------4.--2---------2--------------------------
D--------------------2.--4/6-------2h4p2-----2--------------------------
A-----------2.--/4-----------------------4------------------------------
E---0--/4---------------------------------------------------------------

                           E
e-----------------------------------------------------------------------
B-----------------------------------------------------------------------
G------------2----------------------------------------------------------
D--------2-------2h4---2.-----------------------------------------------
A---/4---------------------4---2h4p2-----2------------------------------
E------------------------------------5---4------------------------------

                          B7
e-----------------------------------------------------------------------
B-----------------------------------------------------------------------
G-----------------------------------------------------------------------
D-------------------------4-----------4-----------4---------------------
A---2h4p2-----2---4---2-------5---6-----------5h6-----6\4---2---2-------
E---------4-------------------------------------------------------------

                               E
e-----------------------------------------------------------------------
B-----------------------------------------------------------------------
G--------4--------------------------------------------------------------
D---/6-------6\4--p2-----------2----------------------------------------
A----------------------4---2--------------------------------------------
E-----------------------------------------------------------------------

                        E
e-----------------------------------------------------------------------
B-----------------------------------------------------------------------
G-----------------------------------------------------------------------
D---2.------------------------------------------------------------------
A-------2h4-2-----------2.----------------------------------------------
E---------------4\2-0---0.----------------------------------------------


                                 A
Baby lock the door and turn the lights down low

                          E
Put some music on that's soft and slow

                       B7
Baby we ain't got no place to go

                  E
I hope you understand


                              A
I've been thinking 'bout this all day long

                       E
Never felt a feeling quite this strong

                             B7
I can't believe how much it turns me on

                 E
Just to be your man


F#m
   There's no hurry, don't you worry

E
  We can take our time

F#m                     G#m
   Come a little closer     Lets go over

A'               B7
  What I had in mind



                                 A
Baby lock the door and turn the lights down low

                          E
Put some music on that's soft and slow

                       B7
Baby we ain't got no place to go

                  E
I hope you understand


                              A
I've been thinking 'bout this all day long

                       E
Never felt a feeling quite this strong

                             B7
I can't believe how much it turns me on

                 E
Just to be your man



Solo
                                 A
e-----------------------------------------------------------------------
B-----------------------------------------------------------------------
G-----------------------------------------------------------------------
D--------------------2---0-------2/4--\2-------2~-----------------------
A-----------2.--/4-----------4-------------4----------------------------
E---0--/4---------------------------------------------------------------

                         E
e-----------------------------------------------------------------------
B-----------------------------------------------------------------------
G-----------------------------------------------------------------------
D-----------2---2---2.--------------------------------------------------
A---0--/4---------------/4---2h4p2-----2~-------------------------------
E----------------------------------4------------------------------------

                        B7
e-----------------------------------------------------------------------
B-----------------------------------------------------------------------
G-----------------------------------------------------------------------
D-----------------------------------------------------------------------
A-----------2---2-------4(5)---4(5)(4)-----2---2h4-2~-------------------
E---0--/4-----------4.-----------------------4--------------------------


e---------------------5-------------------------------------------------
B--------5---7(9)---------7(9)(7)-5-------------------------------------
G---/6-----6------------------------------------------------------------
D-----------------------------------------------------------------------
A-----------------------------------------------------------------------
E-----------------------------------------------------------------------

    E
e-----------------------------------------------------------------------
B---5.-------------5.---------------------------------------------------
G---4.---3\2p0-----4.---3\2p0-------------------------------------------
D--------3\2p0-2--------3\2p0-2-----------------------------------------
A--------------2--------------2-----------------------------------------
E-----------------------------------------------------------------------


e-----------------------------------------------------------------------
B-----------------------------------------------------------------------
G-----------------------------------------------------------------------
D--------2.-------2.----------------------------------------------------
A---/4-------/4------------2--------------------------------------------
E---------------------/4-------4\2-0------------------------------------



F#m
    Ain't nobody, ever love nobody

E
   The way that I love you

F#m                 G#m
    We're alone now    You don't know how

A'                  B7
  Long I've wanted to



                            A
Lock the door and turn the lights down low

                          E
Put some music on that's soft and slow

                       B7
Baby we ain't got no place to go

                  E
I hope you understand


                              A
I've been thinking 'bout this all day long

                                E
Never felt a feeling that was quite this strong

                             B7
I can't believe how much it turns me on

                 E
Just to be your man

                             B7
I can't believe how much it turns me on

                 E
Just to be your man



Outro Solo
                                A
e-----------------------------------------------------------------------
B-----------------------------------------------------------------------
G---------------------------4.--2---------2-----------------------------
D-----------------2---4/6-------2h4p2-----2-----------------------------
A--------2.--/4-----------------------4---------------------------------
E---/4------------------------------------------------------------------

                                     E
e-----------------------------------------------------------------------
B-----------------------------------------------------------------------
G------------2---2------------------------------------------------------
D--------2---2---2h4--p2.--------------------------2--------------------
A---/4---------------------2h4p2-----4---2h4p2-----2--------------------
E--------------------------------5-------------5---4--------------------

                                    B7
e-----------------------------------------------------------------------
B-----------------------------------------------------------------------
G-----------------------------------------------------------------------
D-----------4.---4/5\4-2.---5\4-2---4/6-6\4---2---/4--------------------
A---2h4p2-------x---------------------------------/6--------------------
E-----------------------------------------------------------------------

                                      E
e-----------------------------------------------------------------------
B---5-------------------------------------------------------------------
G---4h6p4-----------------2-----2-----1---------------------------------
D-----------6---6\4---2---2h4---2h4---2---------------------------------
A-----------------------------------------------------------------------
E-----------------------------------------------------------------------

                                        E
e-------------------------------0---0---0.------------------------------
B-------------------------------0---0---0.------------------------------
G-------------------------------1---1---1.------------------------------
D-------------------------------2---2---2.------------------------------
A---2.--2h4-2-----------2.------2---2---2.------------------------------
E---------------4\2-0---0.------0---0---0.------------------------------




Chords (related to Capo on 2nd)

      A      E      B7    F#m    G#m     A'
e-----0------0------2------2------4------5------------------------------
B-----2------0------0------2------4------5------------------------------
G-----2------1------2------2------4------6------------------------------
D-----2------2------1------4------6------7------------------------------
A-----0------2------2------4------6------7------------------------------
E------------0-------------2------4------5------------------------------