20150913

THE SPOTNICKS HARRY LIME THEME TAB (COVER BY STRATOGABOR)

StratoGabor plays a great guitar cover of The Spotnicks - Harry Lime Theme.
Great tune played with a nice Stratocaster.
TAB under the video.



THE SPOTNICKS HARRY LIME THEME TAB

PDF >>

Part 1

e-----------------------------------------------------------------------
B---6---7-8-------7-8---7-8---------------------------------------------
G-----------------------------------------------------------------------
D-----------------------------------------------------------------------
A-----------------------------------------------------------------------
E-----------------------------------------------------------------------


e-----------------------------------------------------------------------
B---6---7-8-------7-8---7-8---------------------------------------------
G-----------------------------------------------------------------------
D-----------------------------------------------------------------------
A-----------------------------------------------------------------------
E-----------------------------------------------------------------------


e-----------------------------------------------------------------------
B---6---7-8.--9-10-------9-10---9-10-----------7-8------7-8------7-8----
G-----------------------------------------------------------------------
D-----------------------------------------------------------------------
A-----------------------------------------------------------------------
E-----------------------------------------------------------------------



e-----------------------------------------------------------------------
B---6---7-8-------7-8---7-8---------------------------------------------
G-----------------------------------------------------------------------
D-----------------------------------------------------------------------
A-----------------------------------------------------------------------
E-----------------------------------------------------------------------


e-----------------------------------------------------------------------
B---6-6---7-8-------7-8---7-8-------------------------------------------
G-----------------------------------------------------------------------
D-----------------------------------------------------------------------
A-----------------------------------------------------------------------
E-----------------------------------------------------------------------


e-----------------------------------------10\----6.---------------------
B---6---7-8.--9-10-------9-10---9-10------------------------------------
G-----------------------------------------------------------------------
D-----------------------------------------------------------------------
A-----------------------------------------------------------------------
E-----------------------------------------------------------------------


e-----------------------------------------------------------------------
B-----------------------------------------------------------------------
G-----------------------------------------------------------------------
D---------------0-5.--4-3-----------------------------------------------
A---------0-1-----------------------------------------------------------
E---1-3-----------------------------------------------------------------



Part 2

e-----------------------------------------------------------------------
B---6---7-8-------7-8---7-8-/-----18------------------------------------
G-----------------------------------------------------------------------
D-----------------------------------------------------------------------
A-----------------------------------------------------------------------
E-----------------------------------------------------------------------


e-----------------------------------------------------------------------
B---6-6---7-8-------7-8---7-8-/-----16---\------------------------------
G-----------------------------------------------------------------------
D-----------------------------------------------------------------------
A-----------------------------------------------------------------------
E-----------------------------------------------------------------------


e-----------------------------------------------------------------------
B---6-6---7-8.--9-10-------9-10---9-10-----------7-8------7-8-----7-8---
G-----------------------------------------------------------------------
D-----------------------------------------------------------------------
A-----------------------------------------------------------------------
E-----------------------------------------------------------------------


e-----------------------------------------------------------------------
B---8-----7-8-----7-8---7-8---------------------------------------------
G---------------------------------7---10.--9.--8.--7.--5-/-----12-\-----
D-----------------------------------------------------------------------
A-----------------------------------------------------------------------
E-----------------------------------------------------------------------


e------------------------------------------10.----6.--------------------
B---6---7-8.--9-10-------9-10---9-10------------------------------------
G-----------------------------------------------------------------------
D-----------------------------------------------------------------------
A-----------------------------------------------------------------------
E-----------------------------------------------------------------------


e-----------------------------------------------------------------------
B-----------------------------------------------------------------------
G-----------------------------------------------------------------------
D-----------------------------------------------------------------------
A---------0-1---5-------7.--8.------------------------------------------
E---1-3-----------------------------------------------------------------



Part 3

e-----------------------------------------------------------------------
B---6---6-6---6-6---6-6---7-8---8-8---8-8---8-8---7---------------------
G-----------------------------------------------------------------------
D-----------------------------------------------------------------------
A-----------------------------------------------------------------------
E-----------------------------------------------------------------------


e-----------------------------------------------------------------------
B---6---6-6---6-6---6-6---7-8.---7-8------------------------------------
G-----------------------------------------------------------------------
D-----------------------------------------------------------------------
A-----------------------------------------------------------------------
E-----------------------------------------------------------------------


e-----------------------------------------------------------------------
B---7-8.--7-8---7-8-----7-8.--7-8---7-8-----5.--6-----------------------
G-----------------------------------------------------------------------
D-----------------------------------------------------------------------
A-----------------------------------------------------------------------
E-----------------------------------------------------------------------


e-----------------------------------------------------------------------
B-----------------------------------------------------------------------
G---7.---5.-------------------------------------------------------------
D-----------------------------------------------------------------------
A-----------------------------------------------------------------------
E-------------1.---3.---1.----------------------------------------------



Part 4

e-----------------------------------------------------------------------
B---6-----6-6---6---7-8---8---------------------------------------------
G-----------------------------------------------------------------------
D-----------------------------------------------------------------------
A-----------------------------------------------------------------------
E-----------------------------------------------------------------------


e-----------------------------------------------------------------------
B---8-8---7-6---6.---/10---10.---/9.--/8-6------------------------------
G-----------------------------------------------------------------------
D-----------------------------------------------------------------------
A-----------------------------------------------------------------------
E-----------------------------------------------------------------------


e---------------------------8.--8-------9.--10.-------------------------
B---6---6-6---6-6---6-6.------------------------------------------------
G-----------------------------------------------------------------------
D-----------------------------------------------------------------------
A-----------------------------------------------------------------------
E-----------------------------------------------------------------------


e-----------------------------------------------------------------------
B-----------------------------------------------------------------------
G-----------------------------------------------------------------------
D-----------------------------------------------------------------------
A---1-0-----------------------------------------------------------------
E-------4-3-2-------1.--------------------------------------------------



Part 5

e-----------------------------13.--10-----------------------------------
B-----------------------------15.--11-----------------------------------
G---------7.--10-9-------10.--------------------------------------------
D-------8---------------------------------------------------------------
A---8.------------------------------------------------------------------
E-----------------------------------------------------------------------


e-----------------------------13.--11-----------------------------------
B-----------------------------15.--13-----------------------------------
G---------7.--10-9-------10.--------------------------------------------
D-------8---------------------------------------------------------------
A---8.------------------------------------------------------------------
E-----------------------------------------------------------------------


e-----------------------------13.--11-----------------------------------
B-----------------------------15.--13-----------------------------------
G---------7.--10-9-------10.--------------------------------------------
D-------8---------------------------------------------------------------
A---8.------------------------------------------------------------------
E-----------------------------------------------------------------------


e-----------------------------------------------------------------------
B-----------------------------------------------------------------------
G-----------------------------------------------------------------------
D---3-2---3-5-----3-2---3-5.--3-0.--------------------------------------
A-----------------------------------1-----------------------------------
E-------------------------------------1---------------------------------


e-----------------------------13.--10-----------------------------------
B-----------------------------15.--11-----------------------------------
G---------7.--10-9-------10.--------------------------------------------
D-------8---------------------------------------------------------------
A---8.------------------------------------------------------------------
E-----------------------------------------------------------------------


e-----------------------------13.--11-----------------------------------
B-----------------------------15.--13-----------------------------------
G---------7.--10-9-------10.--------------------------------------------
D-------8---------------------------------------------------------------
A---8.------------------------------------------------------------------
E-----------------------------------------------------------------------


e-----------------------------------------------------------------------
B----------------------10-10.------8-8-------6-6-------4-4.-------------
G---------7.--10-9-----10-10.------8-8-------7-7-------5-5.------7-7.---
D-------8--------------------------------------------------------8-8.---
A---8.------------------------------------------------------------------
E-----------------------------------------------------------------------


e---13---\--------------------------------------------------------------
B---15---\--------------------------------------------------------------
G-----------------------------------------------------------------------
D-----------------------------------------------------------------------
A-----------------------------------------------------------------------
E-----------------------------------------------------------------------



Part 6

e-----------------------------------------------------------------------
B---6---7-8-------7-8---7-8---------------------------------------------
G-----------------------------------------------------------------------
D-----------------------------------------------------------------------
A-----------------------------------------------------------------------
E-----------------------------------------------------------------------


e-----------------------------------------------------------------------
B---6---7-8-------7-8---7-8---------------------------------------------
G-----------------------------------------------------------------------
D-----------------------------------------------------------------------
A-----------------------------------------------------------------------
E-----------------------------------------------------------------------


e-----------------------------------------------------------------------
B---6---7-8.--9-10-------9-10---9-10-----------7-8------7-8-----7-8-----
G-----------------------------------------------------------------------
D-----------------------------------------------------------------------
A-----------------------------------------------------------------------
E-----------------------------------------------------------------------


e-----------------------------------------------------------------------
B---8-----7-8-----7-8---7-8---------------------------------------------
G--------------------------------7---10.--9.--8.--7.--5-/-----12-\------
D-----------------------------------------------------------------------
A-----------------------------------------------------------------------
E-----------------------------------------------------------------------


e----------------------------------------10\----6.----------------------
B---6-7-8.--9-10.------9-10---9-10.-------------------------------------
G-----------------------------------------------------------------------
D-----------------------------------------------------------------------
A-----------------------------------------------------------------------
E-----------------------------------------------------------------------