20151011

ANDY TIMMONS BAND SHE'S LEAVING HOME TAB


Andy Timmons Band - She's Leaving Home.
Incredible sound and great playing by Andy Timmons.
Download the GP5, GP6 and PDF files below.



ANDY TIMMONS BAND SHE'S LEAVING HOME TAB

GP5 + GP6 + PDF >>

Part 1

e-------------12-12-----12-12-----16-16-12-12---------------------------
B------------------12-12-----12-12-----------14-14-12-12-----12-12------
G--------13-13------------------------------------------14-14-----------
D---14-14---------------------------------------------------------------
A------------------------------------------------------------- 4 times -
E-----------------------------------------------------------------------
    x x x x x x x x x x x x x x x x x x x x x x x x x x x x x x x x


e-----------------------------------------------------------------------
B-----------------------------------------------------------------------
G---2h4---------4p2-2--\1-------9~--------------------------------------
D---2---------------2-----4---------------------------------------------
A----------------------------/9-----------------------------------------
E-----------------------------------------------------------------------


e-----------------------------------------------------------------------
B-----------------------------------------------------------------------
G--9---6/7\6---4--\2-1--/6-6~-------------------------------------------
D-----------------------------------------------------------------------
A----9---------------------------4--/6--/7--/9--/11--/13--\11--\9--\7---
E-----------------------------------------------------------------------




e-----------------------------------------------------------------------
B----------------------------------2-----2~-----------------------------
G-----2/4--/6--/9~----\6\4.----4-------4--------------------------------
D------------------------------4----------------------------------------
A---0--------------------------2----------------------------------------
E-----------------------------------------------------------------------


e-----------------------------------------------------------------------
B----------------------------------2-----2------------------------------
G-----2/4--/6--/9~----\6\4.----4-------4-----4---4p2h4---4~-------------
D------------------------------4---------------4---------2~-------------
A---0--------------------------2-------------------------2~-------------
E--------------------------------------------------------0--------------


e----------------0------------------------------------------------------
B-----------------------------------------------------------------------
G-----2\1--------------9-----6/7--\6-4--\2-1--/6-6~---------------------
D---0-------4-----------------------------------------------------------
A-------------/9-----------9--------------------------------------------
E-----------------------------------------------------------------------


e-----------------------------------------------------------------------
B-------4---5---------9----9h11--11p9-----------------------------------
G---6-----------/11--------------------11---9\--------------------------
D-----6---6---6----11---11-----11----11--11-----------------------------
A-----------------------------------------------------------------------
E-----------------------------------------------------------------------


e-----------------------------------------------------------------------
B----------------------------------2-----2-------2----------------------
G-----2/4--/6--/9~----\6\4.----4-------4-----4-----4--------------------
D-----2/4--/6--/9~----\6\4.----4---------------4------------------------
A---0--------------------------2----------------------------------------
E-----------------------------------------------------------------------




DOWNLOAD THIS TAB IN GUITAR PRO



  • click 'Free Download'
  • add your e-mail address
  • you will get an e-mail with your download links (in a few seconds)
  • download the Guitar Pro 6 tab + GP5 + PDF for free
  • and that's all ...


Guitar Pro: a complete workshop for guitarists at an affordable price