20151005

MY HEART WILL GO ON TAB (FINGERSTYLE GUITAR COVER BY KIMIYOSHI AKIYAMA)

Kimiyoshi Akiyama plays a great fingerstyle cover of My Heart Will Go On.
Use Dropped D tuning and Capo on the 2nd fret.
See the TAB under the video.



MY HEART WILL GO ON FINGERSTYLE TAB

GP5 + GP6 + PDF >>

Part 2

e-----------------------------------------------0---2-----0-0-----------
B---3-----------3---2---3-------3---2---3-------0-------3-------2-------
G-------0-------2---2---2-------2-------0-------------2-------4---------
D-----4---4---4-------2---2---2-------0---0---0-------------------------
A-----------5-------0-------0-----------------------0-------0-----------
D---0-------------------------------5-------5---------------------------


e-----------------------------------------------------------------------
B---3-----------3---2---3-------3-------------------------3-----2-------
G-------0-------2---2---2-------2-------0-------0-------0-------0-------
D-----4---4---4-------2---2---2-----7-----7-------7---2-------2---------
A-----------5-------0-------0---------5-------5-----0-------0-----------
D---0-------------------------------5-----------------------------------


e-----------------------------------------------0---2-----0-0-----------
B---3-----------3---2---3-------3---2---3-------0-------3-------2-------
G-------0-------2---2---2-------2-------0-------------2-------4---------
D-----4---4---4-------2---2---2-------0---0---0-------------------------
A-----------5-------0-------0-----------------------0-------0-----------
D---0-------------------------------5-------5---------------------------



e-----------------------------------------------------------------------
B---3-----------3---2---3-------3---------------------------0-----------
G-------0-------2---2---2-------2-------0-------0---------------6-------
D-----4---4---4-------2---2---2-----7-----7-------7-----7---------------
A-----------5-------0-------0---------5-------5-------5-----7-----------
D---0-------------------------------5---------------5-------4-----------




DOWNLOAD THIS TAB IN GUITAR PRO



  • click 'Free Download'
  • add your e-mail address
  • you will get an e-mail with your download links (in a few seconds)
  • download the Guitar Pro 6 tab + GP5 + PDF for free
  • and that's all ...


Guitar Pro: a complete workshop for guitarists at an affordable price