20151022

SLASH & MYLES KENNEDY STARLIGHT TAB (LIVE ACOUSTIC INTRO)

Slash & Myles Kennedy perform Starlight acoustic live at Max Sessions.
They both use half-step-down tuning.
See the TAB of the intro part below.


SLASH & MYLES KENNEDY STARLIGHT TAB

GP5 + GP6 + PDF >>

Intro

eb----------------------------------------------------------------------
Bb--------------------10----10.-----------------------------------------
Gb--------------------9h11--9.---9-------------9------------------------
Db---9h11~-----------------------9h11-9\7-9/11--------------------------
Ab---0------------------------------------------------------------------
Eb----------------------------------------------------------------------


eb----------------------------------------------------------------------
Bb-----------10----10.--------------------------------------------------
Gb-----------9h11--9.---9----9------------------------------------------
Db----------------------9h11--------------------------------------------
Ab---0------------------------------------------------------------------
Eb----------------------------------------------------------------------


eb-------------------------12-------------------------------------------
Bb----------9-------9h10--------10----9-------9-------9h10-9---9----9---
Gb--------------------------------9----------------------------9h11-9---
Db--------9-------9------9----------9-9-------9-----9-9----9------------
Ab----------------------------------------------------------------------
Eb--0-------------------------------------------------------------------




eb----------------------------------------------------------------------
Bb------------10-----------------10-------------------------------------
Gb---11-------11--------9h11-9-----11-9----9h11-----9h11----------------
Db---12-------12-----12--------12-------12-12-------12------------------
Ab----------------------------------------------------------------------
Eb----------------------------------------------------------------------


eb---10----10.----------------------------------------------------------
Bb---10h12-10.--10---10.---------------10---10--------------------------
Gb--------------9h11-9.---9------------9h11-9---------9-----------------
Db------------------------9--h11-----------------9h11-------------------
Ab----------------------------------------------------------------------
Eb----------------------------------------------------------------------


eb----------------------------------------------------------------------
Bb----------------------------------------------------------------------
Gb------------9--------7--------7------------------9--------------------
Db------------------------------7---------------------------------------
Ab---------11-----11.--9------------------9/11--------------------------
Eb---0-----------------------10-----10-10-------------------------------





DOWNLOAD THIS TAB IN GUITAR PRO


  • click 'Free Download'
  • add your e-mail address
  • you will get an e-mail with your download links (in a few seconds)
  • download the Guitar Pro 6 tab + GP5 + PDF for free
  • and that's all ...


Guitar Pro: a complete workshop for guitarists at an affordable price