20151002

WILLIE NELSON HE WAS A FRIEND OF MINE TAB (INTRO COVER BY MIKI ASHKENAZI)

Perfect guitar cover of the intro part of Willie Nelson's He Was A Friend Of Mine.
Great playing by Miki Ashkenazi. Use Dropped D tuning with CAPO on the 2nd.
Leave the low D and the A strings open. See the TAB under the video.



WILLIE NELSON HE WAS A FRIEND OF MINE TAB

PDF >>

Part 1

e-----------------------------------------------------------------------
B-----8-------8-----------------------2---5-----3-----------------------
G-7/9-------9-----9-----2-----------2-----------------------------------
D-------2-----------2-----------2-----------2---------------------------
A-0-----------0-----------0-----------0---------------------------------
D-----------------------------------------------------------------------


e-----------------------------------------------------------------------
B-------------------------3---------------3-----------------------------
G-----------------2-----------------------------2-----------------------
D-------4-----------5---4-------4-----------4---------------------------
A-------------0-----------------------0---------------------------------
D-0-----------------------0---------------------------------------------


e-----------------------------------------------------------------------
B-----8-------8---------------------7-------2---3-----------------------
G-7/9-------9-----9-----2-----------------2-----------------------------
D-------2-----------2-----------5/7---------5---4-----------------------
A-0-----------0-----------0-----------0---------------------------------
D-----------------------------------------------------------------------



e-------------------------------------0---3-----------------------------
B-------------------------3---------------------------------------------
G-----------------2-----------------2-----------2-----------------------
D-------4-----------5---4-------4-----------4---------------------------
A-------------0---------------------------------------------------------
D-0-----------------------0-----------0---------------------------------


Part 2

e-2h3-------------3-------2---------------------------------------------
B-----------3---------------------3-------------------------------------
G-------3h4---------4---2-----------------------------------------------
D-------------------------------4-----------4---------------------------
A-------------------------------------0---------------------------------
D-5-----------5-----------0---------------------3-----------------------


e-----2-------2---------------------------------------------------------
B-----------2-----5-----------------------------------------------------
G-------3---------------7-----------------9-----2-----------------------
D-----------------------------------------------------------------------
A-------------------4.----------9-----------9---------------------------
D-4-----------4-----------9-----------9---------------------------------


e-----------------------------------------------------------------------
B-5/7-------------7-----------7-------2---5-----3-----------------------
G-----------2-----------2-----------------------------------------------
D-------7-----------7-----------7---x-5-----5---------------------------
A-0-----------0-----------0---------------------------------------------
D-----------------------------------------------------------------------


e-----------------------------------------------------------------------
B-------------------------3---------3-----------------------------------
G-----------------2-----------------------2-----2-----------------------
D-------4-----------5---4-------4-----------4---------------------------
A-------------0-----------------------0---------------------------------
D-0-----------------------0---------------------------------------------


Part 3

e-----------------------------------------------------------------------
B-----8-------8-----------------------2---5-----3-----------------------
G-7/9-------9-----9-----2-----------2-----------------------------------
D-------2-----------2-----------2-----------2---------------------------
A-0-----------0-----------0-----------0---------------------------------
D-----------------------------------------------------------------------


e-----------------------------------------------------------------------
B-------------------------3---------------3-----------------------------
G-----------------2-----------------------------2-----------------------
D-------4-----------5---4-------4-----------4---------------------------
A-------------0-----------------------0---------------------------------
D-0-----------------------0---------------------------------------------


e-----------------------------------------------------------------------
B-----8-------8---------------------7-------2---3-----------------------
G-7/9-------9-----9-----2-----------------2-----------------------------
D-------2-----------2-----------5/7---------5---4-----------------------
A-0-----------0-----------0-----------0---------------------------------
D-----------------------------------------------------------------------


e-------------------------------------0---3-----------------------------
B-------------------------3---------------------------------------------
G-----------------2-----------------2-----------2-----------------------
D-------4-----------5---4-------4-----------4---------------------------
A-------------0---------------------------------------------------------
D-0-----------------------0-----------0---------------------------------


Part 4

e-2h3-------------3-------2---------------------------------------------
B-----------3---------------------3-------------------------------------
G-------3h4---------4---2-----------------------------------------------
D-------------------------------4-----------4---------------------------
A-------------------------------------0---------------------------------
D-5-----------5-----------0---------------------3-----------------------


e-----2-------2---------------------------------------------------------
B-----------2-----5-----------------------------------------------------
G-------3---------------7-----------------9-----2-----------------------
D-----------------------------------------------------------------------
A-------------------4.----------9-----------9---------------------------
D-4-----------4-----------9-----------9---------------------------------


e-----------------------------------------------------------------------
B-5/7-------------7-----------7-------2---5-----3-----------------------
G-----------2-----------2-----------------------------------------------
D-------7-----------7-----------7---x-5-----5---------------------------
A-0-----------0-----------0---------------------------------------------
D-----------------------------------------------------------------------


e-------------------------------------0---3-----------------------------
B-------------------------3---------------------------------------------
G-----------------2-----------------2-----------2-----------------------
D-------4-----------5---4-------4-----------4---------------------------
A-------------0---------------------------------------------------------
D-0-----------------------0-----------0---------------------------------


Part 5

e-2h3-------------3-------2---------------------------------------------
B-----------3---------------------3-------------------------------------
G-------3h4---------4---2-----------------------------------------------
D-------------------------------4-----------4---------------------------
A-------------------------------------0---------------------------------
D-5-----------5-----------0---------------------3-----------------------


e-----2-------2---------------------------------------------------------
B-----------2-----5-----------------------------------------------------
G-------3---------------7-----------------9-----2-----------------------
D-----------------------------------------------------------------------
A-------------------4.----------9-----------9---------------------------
D-4-----------4-----------9-----------9---------------------------------


e-----------------------------------------------------------------------
B-5/7-------------7-----------7-------2---5-----3-----------------------
G-----------2-----------2-----------------------------------------------
D-------7-----------7-----------7---x-5-----5---------------------------
A-0-----------0-----------0---------------------------------------------
D-----------------------------------------------------------------------


e-----------------------------------------------------------------------
B-------------------------3---------------------------------------------
G-----------------2-----------------------------------------------------
D-------4-----------5---4-----------------------------------------------
A-------------0---------------------------------------------------------
D-0-----------------------0---------------------------------------------