20151107

BILLIE JOE SPEARS BLANKET ON THE GROUND TAB (INSTRUMENTAL COVER BY ERIC)

Blanket on the Ground instrumental guitar cover played by Eric.
Original song by Billie Joe Spears.
See the TAB under the video.



BLANKET ON THE GROUND TAB

GP5 + GP6 + PDF >>

Part 1

e-----------------------------------------------------------------------
B-----------------------------------------------------------------------
G-----------------------------------------------------------------------
D---0-0-----1--0h1p0-------0--0~----------------------------------------
A--------------------3--1-----------------------------------------------
E-----------------------------------------------------------------------


e-----------------------------------------------------------------------
B-----------------------------------------------------------------------
G-----------------------------------------------------------------------
D---0-0-----1--0h1p0----------------------------------------------------
A--------------------3--1--3~-------------------------------------------
E-----------------------------------------------------------------------


e-----------------------------------------------------------------------
B-----------------------------------------------------------------------
G-----------------------------------------------------------------------
D-----------------------3h4p3-------------------------------------------
A---3--3-----3-5--3--5--------5--3~-------------------------------------
E-----------------------------------------------------------------------



e-----------------------------------------------------------------------
B-----------------------------------------------------------------------
G-----------------------------------------------------------------------
D-------------------------------0~--------------------------------------
A---3--3-----3-3h5--3h4p3-0---------------------------------------------
E----------------------------1------------------------------------------




DOWNLOAD THIS TAB IN GUITAR PRO



  • click 'Free Download'
  • add your e-mail address
  • you will get an e-mail with your download links (in a few seconds)
  • download the Guitar Pro 6 tab + GP5 + PDF for free
  • and that's all ...


Guitar Pro: a complete workshop for guitarists at an affordable price