20151126

GABRIELLA QUEVEDO NOTHING ELSE MATTERS TAB (FINGERSTYLE GUITAR COVER OF THE METALLICA SONG)

Gabriella Quevedo's fingerstyle guitar cover of Nothing Else Matters.
Original song by Metallica.
See the TAB under the video.



GABRIELLA QUEVEDO NOTHING ELSE MATTERS TAB

GP5 + GP6 + PDF >>

Intro

e-----------------------------------------------------------------------
B---------------0-----------------------0-------------------------------
G---------------0-----------------------0-------------------------------
D-----------2-------2---------------2-------2---------------------------
A-------2---------------2-------2---------------2-----------------------
E---0-----------------------0-------------------------------------------


e-----------------------------------------------------------------------
B---------------0-----------------------0-------0.----------------------
G---------------0-----------------------0-------------------------------
D-----------2-------2---------------2-------2---------------------------
A-------2---------------2-------2---------------------------------------
E---0-----------------------0-------------------------------------------


e-----------------------------------------------------------------------
B---0-----------0-------------------------------------------------------
G-----------------0-----------------4.--5---4h5p4-2---4---2h4p2---------
D-----------2-------2---------------2.------2---------2---------2.------
A-------2-----------------------2---------------------------------------
E---0-------------------3'--0-------------------------------------------



e---------------0-----------------------0-------------------------------
B-------------------1-----------------------1---------------------------
G-----------2-----------2-----------2-----------------------------------
D---2---2-----------------------2---------------------------------------
A---0-----------------------0-------------------------------------------
E-----------------------------------------------------------------------


e-------------------0---------------------0h2p0-----2/3-----------------
B-----------------------1-------------3---------3---3/5-----------------
G---------------0-----------0-------2---2---------0---------------------
D-----------0h2-----------------0---------0-----------------------------
A---0h2h3---------------------------------------------------------------
E-----------------------------------------------------------------------


e---3-----------2-----------0-------------------0-----------------------
B---5-------5-------5-----------5-------3-------------------------------
G-------4---------------4-----------4-------4---------------------------
D-----------------------------------------------------------------------
A-----------------------------------------------------------------------
E---0-------------------------------------------------------------------


e-----------------------------------------------------------------------
B---------------0-----------------------0-------------------------------
G---------------0-----------------------0-------------------------------
D-----------2-------2---------------2-------2---------------------------
A-------2---------------2-------2---------------2-----------------------
E---0-----------------------0-------------------------------------------


e-----------------------------------------------------------------------
B----------------------<12>---------------------------------------------
G------------------<12>------------------------<19>----------------5<17>
D-------------4<16>---------------------4<16>---------------5<17>-------
A--------7<19>-------------------5<17>---------------3<15>--------------
E---0-------------------------------------------------------------------


e-----------------------------------------------------------------------
B----------------------<12>---------------------------------------------
G------------------<12>------------------------<19>----------------5<17>
D-------------4<16>---------------------4<16>---------------5<17>-------
A--------7<19>-------------------5<17>---------------3<15>--------------
E---0-------------------------------------------------------------------


e-----------------------------------------------------------------------
B----------------------<12>---------------------------------------------
G------------------<12>-------------------------------------------------
D-------------4<16>-----------------------------------------------------
A--------7<19>----------------------------------------------------------
E---0-------------------------------------------------------------------


e-----------------------------------------------------------------------
B--------------------<19>---------------------5<17>---------------------
G----------------<19>--------------------5<17>--------------------------
D-----------4<16>-------------------5<17>-------------------------------
A---5<17>-------------------3<15>---------------------------------------
E-----------------------------------------------------------------------


e-----------------------------------------------------------------------
B-----------------------------------------------4<16>-------------------
G---------------------4<16>----------------4<16>------------------------
D----------------5<17>----------------4<16>-----------------------------
A-----------5<17>-------------2<14>-------------------------------------
E---3<15>---------------------------------------------------------------


e-------------------0---------------------------------------------------
B---5<17>-----------------------------------0---------------------------
G---------------0-------0-------------------0---------------------------
D-----------2---------------2-----------2-------2-----------------------
A-----------------------------------2---------------2-------------------
E-------------------------------0---------------------------------------


Verse 1

e-----------------------------------------------------------------------
B-----------------------------------------------------------------------
G-----------------------------------------------0-----------------------
D-----------0h2-2-------2/4-4p2-2---0-------0h2---2---------------------
A---------2-----------2-----5-----------3-------------------------------
E---0-------------------------------------------------------------------


e-----------------------------------------------------------------------
B-----------------------------------------------------------------------
G-----------------------------------------------0-----------------------
D-----------0h2-2-------2p0-------0h2-------0h2---2---------------------
A---------2-----------2-----5---5-------3-------------------------------
E---0-----------------------5-------------------------------------------




DOWNLOAD THE COMPLETE TAB HERE 


  • click 'Free Download'
  • add your e-mail address
  • you will get an e-mail with your download links (in a few seconds)
  • download the Guitar Pro 6 tab + GP5 + PDF for free
  • and that's all ...


Guitar Pro: a complete workshop for guitarists at an affordable price