20151221

BOYCE AVENUE GOD MUST HAVE SPENT TAB (ORIGINAL SONG BY N'SYNC)

God Must Have Spent (N'SYNC) played by Boyce Avenue.
Great acoustic cover. Standard tuning, CAPO on the 2nd.
See the TAB under the video.



BOYCE AVENUE GOD MUST HAVE SPENT TAB

GP5 + GP6 + PDF >>

Intro

e-----------------------------------------------------------------------
B-----------------------------------------------------------------------
G---0--h2.--2h4-0-----------0---------------0---0-----------------------
D---0-----------2-------2-----------4-----------0-----------------------
A---------------3-------------------5-----------------------------------
E---3-------------------------------5-----------3-----------------------


e-----------------------------------------------------------------------
B-----------------------------------------------------------------------
G---0--h2.--2h4-0-----------0---------------0---0-----------------------
D---0-----------2-------2-----------4-----------0-----------0h2---------
A---------------3-------------------5-----------------------------------
E---3-------------------------------5-----------3-----------------------


e-----------------------------------------------------------------------
B-------------------------------------------3---0-----------------------
G---0--h2.--2h4-0-----------0-------4---5.--------------0---------------
D---0-----------2-------2-----------0-----------------------2-----------
A---------------3-------------------0---------------------------2-------
E---3-------------------------------------------0-----------------------



e-----------------------------------------------------------------------
B-----------------------------------------------------------------------
G---0--h2.--2h4-0-----------0-------2-------0.--0-----------------------
D---0-----------2-------2-----------0-----------0-----------------------
A---------------3-------------------0-----------------------------------
E---3-------------------------------------------3-----------------------



Verse

e-----------------------------------------------------------------------
B-----------------------------------0-----------------------------------
G---2-------------------------------------------------------------------
D-------4-------4-----------------------0-------4---------------2h4-----
A---5-------5-----------------------2-------2---------------------------
E-----------------------------------------------------------------------


e-----------------------------------------------------------------------
B-----------------------------------------------------------------------
G---0-----------0-------------------0-----------------------------------
D-------2-------------------------------0-------0-----------------------
A---3-------3-----------------------------------------------------------
E-----------------------------------3-------3---------------------------


e-----------------------------------------------------------------------
B-----------------------------------0-----------------------------------
G---2-------------------------------------------------------------------
D-------4-------4-----------------------0-------4---------------2h4-----
A---5-------5-----------------------2-------2---------------------------
E-----------------------------------------------------------------------


e-----------------------------------------------------------------------
B-----------------------------------------------------------------------
G---0-----------0-------------------0-----------------------------------
D-------2-------------------------------0-------0-----------------------
A---3-------3---------------------------------------------------0h2-----
E-----------------------------------3-------3---------------------------


e-----------------------------------------------------------------------
B---------------1-------------------------------0-----------------------
G-----------0-------------------------------0---------------------------
D-------2-------------------------------0-------------------------------
A---3-----------------------------------------------------------0h2-----
E-----------------------------------3-----------------------------------


e-----------------------------------------------------------------------
B---------------1-------3/5\3-------------------0-----------1p0---------
G-----------0-------------------------------0-------------------0-------
D-------2-------------------------------0-----------------0-------------
A---3-------------------------------------------------------------------
E-----------------------------------3-----------------------------------


e-----------------------------------------------------------------------
B---------------1-------------------------------0-----------------------
G-----------0-------------------------------2---------------------------
D-------2-------------------------------1-------------------------------
A---3-------------------------------2-----------------------------------
E-----------------------------------------------------------------------

e-----------------------------------------------------------------------
B---------------1-------------------------------3-----------------------
G-----------0-------------------------------2---------------------------
D-------2---------------------------0-----------------------------------
A---3-----------------------------------0-------------------------------
E-----------------------------------------------------------------------



Chorus

e-----------------------------------------------------------------------
B---0-----------------------0-------------------------------------------
G-------0---------------0-------------------0---0-----------------------
D-----------0---2-------------------4-----------0-----------------------
A---------------3-------------------5-----------------------------------
E---3-------------------------------5-----------3-----------------------


e-----------------------------------------------------------------------
B---0-----------------------0-------------------------------------------
G-------0---------------0-------------------0---0-----------------------
D-----------0---2-------------------4-----------0---------------0h2-----
A---------------3-------------------5-----------------------------------
E---3-------------------------------5-----------3-----------------------


e-----------------------------------------------------------------------
B---0-----------------------0-------------------0-----------------------
G-------0---------------0-----------2-------0---0-----------------------
D-----------0---2-------------------0-----------2-----------------------
A---------------3-------------------0-----------------------------------
E---3-------------------------------------------0-----------------------


e-----------------------------------------------------------------------
B---1-----------0-------------------1-----------3-----------------------
G---2-----------0-------------------0-----------2-----------------------
D---2-----------2-------------------2-----------0-----------------------
A-----------------------------------3-----------0-----------------------
E---1-----------0-------------------------------------------------------


e-----------------------------------------------------------------------
B-----------------------------------------------------------------------
G---0--h2.--2h4-0-----------0---------------0---0-----------------------
D---0-----------2-------2-----------4-----------2-----------------------
A---------------3-------------------5-----------------------------------
E---3-------------------------------5-----------0-----------------------


e-----------------------------------------------------------------------
B-----------------------------------------------------------------------
G---0--h2.--2h4-0-----------0-------2-------0---0-----------------------
D---0-----------2-------2-----------0-----------0-----------------------
A---------------3-------------------0-----------------------------------
E---3-------------------------------------------3-----------------------





DOWNLOAD THIS TAB IN GUITAR PRO


  • click 'Free Download'
  • add your e-mail address
  • you will get an e-mail with your download links (in a few seconds)
  • download the Guitar Pro 6 tab + GP5 + PDF for free
  • and that's all ...


Guitar Pro: a complete workshop for guitarists at an affordable price